Cifra Club

Indiana Jones

Temas de Filmes

Tablatura: Principal (guitarra)
Tom: F
I didn't include tied notes because it would look messy

|----3------------------------1-------------0----------------0-1---------|
|-------1------------------0--------0-1--3------------1---3--------------|
|-----0----------------0-2--------2-----------------0-----------0-0-0----|
|-2-3-------0-2-3------------------------------2-3-----------------------|
|---------------------------6-5------------------------------------------|
|-----------------------------------12/15--------------------------------|
|
|-0------0------1------1-------------------------------------------------|
|---3------3------3------3-----------------------------------------------|
|------0------0------0-----4--5------------------------------------------|
|--------------------------------------------------2---------------------|
|------------------------------------------------------------------------|
|--------------------------------0--3-1----1--0-3-------0--3-1----1--0-3-|
|
|-------------------1-------1-------1----------------------------3--|
|-------------------------------------4-4-4-------4-------4--4-2-3--|
|---------------------3-3-3---3-3-3---------1-1-1---1-1-1--------0--|
|--------------2-------------------------------------------------0--|
|----------------------------------------------------------------X--|
|-1----1-1-0-3---1-3---------------------------------------------0--|
reproducciones 344
Acordes para:
    Colaboración y revision:
    • andré

    0 comentarios

    mostrar más comentarios

    ¿Conseguiste tocar?

    5 tocaron 0 aún no

    ¡Graba un vídeo tocando Indiana Jones y envianoslo!

    00:00 / 00:00
    outros vídeos desta música
    repetir qualidade Automático
    Outros vídeos desta música
    00:00 / 00:00
    Automático
    OK