Cifra Club

James Bond

Temas de Filmes

Tablatura: Principal (guitarra)
Tom: G
James Bond Theme
I saw an okay version in OLGA, but it was not complete.
So I thought I ought to return something for all the tabs
that I downloaded from the net.  Here is my version of the
WHOLE of the JB Theme.  It is difficult to reproduce the
rhythm with tab, but I hope it is obvious to anyone playing
what the rhythm should be.  If not email me on

in sections as I believe this make the file shorter and you
need less paper to print it off (everyone must do their bit to save the earth).
The sequence of the sections is:  A-B-B-A-C-C-D-D-E--(half of)A-B-F
Have fun!
------------------------------------------------------------------------
James Bond Theme
By Monty Norman

Transcribed by Jeff Auyeung
  A
e:--------------|-----------|----------|----------|
B:--------------|-----------|----------|----------|
G:--------------|-----------|----------|----------|
D:--------------|-----------|----------|----------|
A:2-------3-----|4-----3----|2----3----|4----3----|
E:--------------|-----------|----------|----------|




   B
e:------------------------|------------------------|------------------------|
B:------------------------|------------------------|------------------------|
G:------------------------|------------------------|------------------------|
D:------------------------|------------------------|------------------------|
A:------------------------|------------------------|------------------------|
E:0--2--2--2--2--0--0--0--|0--3--3--3--3--2--2--2--|0--2--2--2--2--0--0--0--|


e:------------------------|------------------------|------------------------|
B:------------------------|------------------------|------------------------|
G:------------------------|------------------------|------------------------|
D:------------------------|------------------------|------------------------|
A:------------------------|------------------------|------------------------|
E:0--3--3--3--3--2--2--2--|0--2--2--2--2--0--0--0--|0--3--3--3--3--2--2--0--|


                                 
                                 

e:------------------|-----------|
B:------------------|-----------|
G:------------------|-----------|
D:1--0--------------|-----------|
A:------------2--0--|2----------|
E:------------------|-----------|




  C
e:-------------------|------------|-----------------|----------|
B:--------4--3-------|------------|-----------------|
G:-------------------|3-4---------|-----------------|
D:2--5------------5--|------------|5-------0--1-2---|
A:-------------------|------------|---2-------------|
E:-------------------|------------|-----------------|


e:---------------------|------------------|
B:---------4--3--------|------------------|
G:---------------------|-3--4-------------|
D:2--5--------------5--|-------5----0-1-2-|
A:---------------------|----------2-------|
E:---------------------|------------------|                                       



                                   ===============



  D
e:---------------------|-------------------|
B:---------------------|-------------------|
G:---------------------|-------------------|
D:---------------------|-------------------|
A:7--7-----7--9--7--9--|10-10--10-9--8--9--|
E:---------------------|-------------------|


                                   

  E
e:7--7----7------7--7--|7---------|
B:8--8----7------8--8--|7---------|
G:9--9----8------9--9--|8---------|
D:9--9----9------9--9--|9---------|
A:7--7----9------7--7--|9---------|
E:--------7------------|7---------|




  F
e:----------------------|-------------------|------------------|-2-------|
B:----------------------|-------------------|------------4--3--|-2-------|
G:----------------------|----------------3--|2-------2---------|-2-------|
D:--------1--0----------|4--3-------0-------|-----3------------|-1-------|
A:-------------------2--|--------3----------|------------------|-2-------|
E:0--3------------3-----|-------------------|------------------|---------|
                                                                 ========

This TAB transcription was created using TAB MASTER version 1.0
If you enjoy using this program, please consider telling the author

                    snail-mail: Ehoud 10, Tel Aviv, 69936, Israel

This program is freeware, but it took me some work to make it, so
your financial contribution is welcome.

http://www.rockprogressivo.com.br/zade

Versão 2
---------
 
    e |------------------|
    b |------------------|
    g |---2---3---4-----| 2x
    d |-0---0---0-------|
    a |------------------|
    e |------------------|
 
                            
 
   e  |--------------------------------------------------------------------------- 
    b |---------------------------------------------------------------------------
    g |---------------------------------------------------------------------------
    d |---------------------------------------------------------------------------
    a |----------------------------------------------------7---5------------------
    e|-5-7777/7---555/5--7-8/8/8/8-7/7/7/7-----------------7--5-7------------
reproducciones 261
Acordes para:

    0 comentarios

    mostrar más comentarios

    ¿Conseguiste tocar?

    6 tocaron 0 aún no

    ¡Graba un vídeo tocando James Bond y envianoslo!

    00:00 / 00:00
    outros vídeos desta música
    repetir qualidade Automático
    Outros vídeos desta música
    00:00 / 00:00
    Automático
    OK