Cifra Club

Jurassic Park

Temas de Filmes

Tablatura: Principal (guitarra)
Tom: A#
[Intro]

E|----6-5-6------6-5-6------6-5-6--8-8-----------------|
B|----------6--4-------6--4----------------------------|
G|-----------------------------------------------------|
A|-----------------------------------------------------|
D|-----------------------------------------------------|
E|-----------------------------------------------------|

[Riff]

E|-----------------------------------------------------|
B|-----8-----10-12-13-13-12----10---13--12---10-12b13--|
G|--5----7------------------12-------------12---------5|
D|-----------------------------------------------------|
A|-----------------------------------------------------|
E|-----------------------------------------------------|
reproducciones 1.893
Acordes para:
    Colaboración y revision:
    • Marcos Paulo

    0 comentarios

    mostrar más comentarios

    ¿Conseguiste tocar?

    21 tocaron 5 aún no

    ¡Graba un vídeo tocando Jurassic Park y envianoslo!

    00:00 / 00:00
    outros vídeos desta música
    repetir qualidade Automático
    Outros vídeos desta música
    00:00 / 00:00
    Automático
    OK