Cifra Club

Missão Impossível

Temas de Filmes

Tablatura: Principal (guitarra)
Tom: F
( G5  G5  G5  Bb5  C5  G5  G5  G5  F5  F#5 )

E|-------------------------------------------------------|
B|-------------------------------------------------------|
G|-------------------------------------------------------|
D|-------------------------------------------------------|
A|-------1-3-------------------------1-3-----------------|
E|--3-3------3--3----1-2-3--3-----------3-3---1-2-3------|

E|-------------------------------------------------------------------------------------|
B|-------------------------------------------------------------------------------------|
G|-------------------------------------------------------------------------------------|
D|-------------------------------------------------------------------------------------|
A|-----------------1-3-1-------------------------------------1-3-1---------------------|
E|-3-3-3-3-3-3-3-3-------3-3-3-3-3-3-3-3-1-2-3-3-3-3-3-3-3-3-------3-3-3-3-3-3-3-3-1-2-|

E|-10-8-----10-8------10-8-----------|
B|------10--------9---------8----8---|
G|----------------------------10-----|
D|-----------------------------------|
A|-----------------------------------|
E|-----------------------------------|

E|-------10--------9--------8--------|
B|-10-8------10-8-----10-8--------8--|
G|-----------------------------10----|
D|-----------------------------------|
A|-----------------------------------|
E|-----------------------------------|
reproducciones 694
Acordes para:

    0 comentarios

    mostrar más comentarios

    ¿Conseguiste tocar?

    54 tocaron 7 aún no

    ¡Graba un vídeo tocando Missão Impossível y envianoslo!

    00:00 / 00:00
    outros vídeos desta música
    repetir qualidade Automático
    Outros vídeos desta música
    00:00 / 00:00
    Automático
    OK