Cifra Club

Mortal Kombat

Temas de Filmes

Tablatura: Principal (guitarra)
Tom: C
E|-------------0--------0---3---0----|
B|-----1---3-----3--1-1---1---1---1--|
G|-2-2---2---2-----------------------|
D|-----------------------------------|
A|-----------------------------------|
E|-----------------------------------|

E|-----------------------------------|
B|-----0---1---3-1----------1---1-0--|
G|-0-0---0---0----------2------------|
D|------------------3-3---3---3------|
A|-----------------------------------|
E|-----------------------------------|

E|-----------------------------------|
B|-----------------------------------|
G|------------5----------------------|
D|-7-7-7-7--5----7-7-7-7-5-----------|
A|--------------------------7--------|
E|-----------------------------------|

E|-----------------------------------|
B|-----------------------------------|
G|---9-------------------------------|
D|-7---7-10-7-8-10-8-7-5-------------|
A|-----------------------------------|
E|-----------------------------------|

E|-----------------------------------|
B|-----------------------------------|
G|---9-------------------------------|
D|-7---7-10-7-8-10-8-7-5-------------|
A|-----------------------------------|
E|-----------------------------------|
reproducciones 410
Acordes para:
    Colaboración y revision:

    0 comentarios

    mostrar más comentarios

    ¿Conseguiste tocar?

    60 tocaron 7 aún no

    ¡Graba un vídeo tocando Mortal Kombat y envianoslo!

    00:00 / 00:00
    outros vídeos desta música
    repetir qualidade Automático
    Outros vídeos desta música
    00:00 / 00:00
    Automático
    OK