Cifra Club

Piratas do Caribe

Temas de Filmes

Tablatura: Principal
reproducciones 761
Tono: A
E|----------------------------------------------------------------|
B|--------------5---6-6-6--8----5-5-5-----------------------------|
G|-----5--7-7--------------------------7-5-7b---------------------| 
D|---7------------------------------------------------------------|
A|----------------------------------------------------------------|
E|----------------------------------------------------------------|

E|------------------------------------------5---6-6-6--5----5-----|
B|--------------5---6-6-6--8----5-5-5---8-----------------8-------|
G|-----5--7-7---------------------------------------------------7-|
D|---7------------------------------------------------------------|
A|----------------------------------------------------------------|
E|----------------------------------------------------------------|

E|-------------------5--------------------------------------------|
B|----------------8----------5h6h5--5-5---5-----------------------|
G|------5--7-7----------7---------------7-------------------------|
D|---7------------------------------------------------------------|
A|----------------------------------------------------------------|
E|----------------------------------------------------------------|

E|-------------------5--3-----6----------6------------------------|
B|---------------8---------------6----------6--------9--10--------|
G|------5--7-7----------------------------------------------------|
D|---7------------------------------8-----------8-----------------|
A|----------------------------------------------------------------|
E|----------------------------------------------------------------|

E|----------------------------------------------------------------|
B|----10--10--10---11--10----8--8--8--9---------------------------|
G|----10--10--10---10--10----9--9--9--9---------------------------|
D|----------------------------------------------------------------|
A|----------------------------------------------------------------|
E|----------------------------------------------------------------|

E|----------------------------------------------------------------|
B|---4h8--7--6---5------------------------------------------------|
G|---5h9--8--7---6----7-------------------------------------------|
D|----------------------------------------------------------------|
A|----------------------------------------------------------------|
E|----------------------------------------------------------------|

E|----------------------------------------------------------------|
B|---------------8--10--8-8----------8h10-8-----------------------|
G|---7--9--10-10------------10-9-10-------------------------------|
D|----------------------------------------------------------------|
A|----------------------------------------------------------------|
E|----------------------------------------------------------------|

E|----------------------------------------------------------------|
B|---------------8--10--8-8---------------------------------------|
G|---7--9--10-10------------10-9h10h9-9-7-------------------------|
D|----------------------------------------------------------------|
A|----------------------------------------------------------------|
E|----------------------------------------------------------------|

E|----------------------------------------------------------------|
B|---------------8--10--11-------8-------8------------------------|
G|---7--9--10----------------7-------10-----7---------------------|
D|---------------------------------------------9------------------|
A|----------------------------------------------------------------|
E|----------------------------------------------------------------|

E|----------------------------------------------------------------|
B|----10--10--10---11--10----8--8--8--9----4h8--7--6--6-----------|
G|----10--10--10---10--10----9--9--9--9----5h9--8--7--5-----------|
D|----------------------------------------------------------------|
A|----------------------------------------------------------------|
E|----------------------------------------------------------------|
Acordes para:
    Colaboración y revision:

    0 comentarios

      mostrar más comentarios

      ¿Conseguiste tocar?

      23tocaron1aún no

      ¡Graba un vídeo tocando Piratas do Caribe y envianoslo!

      00:00 / 00:00
      outros vídeos desta música
      repetirqualidadeautomática
      Outro vídeos desta música
        00:00 / 00:00
        automática
        OK