Cifra Club

Star Wars - Marcha Imperial

Temas de Filmes

Tablatura: Principal (guitarra)
Tom: G
[Intro]

E|-----------------------------------|
B|-----------------------------------|
G|-----------------------------------|
D|-----------------------------------|
A|-10-10--10-10-10--10-10--6-6-6-6---|
E|-----------------------------------|

[Riff principal]

E|-----------------------|---------------------|
B|-----------------------|---------------------|
G|-----------------------|--7-7-7-8------------|
D|-------------8-5---8-5-|----------8-5----8-5-|
A|-10-10-10--6-----6-----|---------------6-----|
E|-----------------------|---------------------|

E|-------------------------------------|
B|--8------8-7-6-----------------------|
G|---------------9-8-9-----6-5-4-------|
D|----5-5---------------6--------8-7-8-|
A|-------------------------------------|
E|-------------------------------------|

E|---------------------------------|
B|---------------------------------|
G|------------------7-7------------|
D|----5---8-5--8-5-----------------|
A|--6---6--------------------------|
E|---------------------------------|

E|-------------------------------------|
B|--8------8-7-6-----------------------|
G|---------------9-8-9-----6-5-4-------|
D|----5-5---------------6--------8-7-8-|
A|-------------------------------------|
E|-------------------------------------|

E|--------------------------|
B|--------------------------|
G|--------------------------|
D|----5----8-5-----8-5------|
A|--6----6------6-----------|
E|--------------------------|
reproducciones 3.826
Acordes para:
    Colaboración y revision:
    • Marcos Paulo
    • Gustavo
    • Kelvin Gomes

    0 comentarios

    mostrar más comentarios

    ¿Conseguiste tocar?

    63 tocaron 4 aún no

    ¡Graba un vídeo tocando Star Wars - Marcha Imperial y envianoslo!

    00:00 / 00:00
    outros vídeos desta música
    repetir qualidade Automático
    Outros vídeos desta música
    00:00 / 00:00
    Automático
    OK