Cifra Club

Star Wars

Temas de Filmes

Tablatura: Principal (guitarra)
Tom: A#
E|---------------------------------!-------------------|
B|--------------------------11-----!----------11-------|
G|-------------10----8-7-5-----10~~!---8-7-5------10~~-|
D|----------8----------------------!-------------------|
A|---8-8-8-------------------------!-------------------|
E|---------------------------------!-------------------|

E|-------------------------------------|
B|-------------------------------------|
G|-------8-7-8-------------------------|
D|----8----------10~~~~----------------|
A|-------------------------------------|
E|-------------------------------------|
reproducciones 823
Acordes para:
    Colaboración y revision:
    • Marcos Paulo
    • Clarissa Borges
    • Conrado Barrionuevo

    0 comentarios

    mostrar más comentarios

    ¿Conseguiste tocar?

    14 tocaron 2 aún no

    ¡Graba un vídeo tocando Star Wars y envianoslo!

    00:00 / 00:00
    outros vídeos desta música
    repetir qualidade Automático
    Outros vídeos desta música
    00:00 / 00:00
    Automático
    OK