Cifra Club

Titanic

Temas de Filmes

Tablatura: Principal (guitarra)
Tom: E
[Intro] C#m  B4  A  B4

E|---------------------7--4-7-7/9--7--------|
B|-5h7-7/9--10p9p7\5/7---------------7\9-7--|
G|------------------------------------------|
D|------------------------------------------|
A|------------------------------------------|
E|------------------------------------------|

[Primeira Parte]

E               B
Every night in my dreams
   A         C#m  B
I see you I feel you
  E             B         A9
That is how I know you go on

 E              B
Far across the distance
      A        C#m  B
And spaces between  us
 E                 B         A9
You have come to show you go on

[Refrão]

 C#m7  B9      A9       B9
Near, far, wherever you are
     C#m7           B9           A9  B9
I believe that the heart does go on
C#m7  B9       A9        B9
Once more, you open the door
            C#m7       B9
And you're here in my heart and
    A9           B9     E
My heart will go on and on

[Solo] B4  A  B4

E|---------------------7--4-7-7/9--7--------|
B|-5h7-7/9--10p9p7\5/7---------------7\9-7--|
G|------------------------------------------|
D|------------------------------------------|
A|------------------------------------------|
E|------------------------------------------|

[Segunda Parte]

 E                B
Love can touch us one time
     A        C#m  B
And last for life time
E              B             A9
And never let go till we're gone
 E               B               A       C#m     B
Love was when I loved you, one true time I hold to
E                B         A9
In my life we'll always go on

[Refrão]

 C#m7  B9      A9       B9
Near, far, wherever you are
     C#m7           B9           A9  B9
I believe that the heart does go on
C#m7  B9       A9        B9
Once more, you open the door
            C#m7       B9
And you're here in my heart and
    A9           B9     E
My heart will go on and on

[Solo] C#m  B4  A  B4  
       C#m  B4  A  B4

E|---------------------7--5-4---------------|
B|-5h7-7/9--10p9p7\5/7--------5~------------|
G|------------------------------------------|
D|------------------------------------------|
A|------------------------------------------|
E|------------------------------------------|

E|---------------------7--4-7-7/9-----------|
B|-5h7-7/9--10p9p7\5/7----------------------|
G|------------------------------------------|
D|------------------------------------------|
A|------------------------------------------|
E|------------------------------------------|

E|-11-11h12-12/14~--------------------------|
B|------------------------------------------|
G|------------------------------------------|
D|------------------------------------------|
A|------------------------------------------|
E|------------------------------------------|

[Refrão Final]

 Fm     Eb           Db        Eb
You're hear there's nothing I fear
        Fm          Eb           Db  Eb
And I know that my heart will go on
 Fm     Eb    Db         Eb
We'll stay forever this way
         Fm         Eb
You are safe in my heart
        Db           Eb     
And my heart will go on and on

[Final] Fm  Eb  Db  Eb
        Fm  Eb  Db  Eb  Ab
reproducciones 5.043
Acordes para:

    0 comentarios

    mostrar más comentarios

    ¿Conseguiste tocar?

    125 tocaron 11 aún no

    ¡Graba un vídeo tocando Titanic y envianoslo!

    00:00 / 00:00
    outros vídeos desta música
    repetir qualidade Automático
    Outros vídeos desta música
    00:00 / 00:00
    Automático
    OK