Cifra Club

Marcha Soldado

Músicas Infantis

Tablatura: Principal (guitarra)
Tom: C
 C
Marcha soldado
             G
Cabeça de papel

Quem não marchar direito
                  C
Vai preso no quartel

O quartel pegou fogo
                 G
A polícia deu sinal

Acode, acode, acode
                 C
A bandeira nacional

E|------------------------------------------------------------|
B|------------------------------------------------------------|
G|-0--0----------0-0-0------------------0--0---2-0------------|
D|------2------2-------2-0----2-3-3-3-0------------3-2-0------|
A|--------3--3-------------------------------------------3----|
E|------------------------------------------------------------|

E|------------------------------------------------------------|
B|------------------------------------------------------------|
G|-----0--0----------0-0-0------------------0-0-0-2-0---------|
D|---2------2------2-------2-0----2-3-3-3-0-----------3-2-0---|
A|-3----------3--3------------------------------------------3-|
E|------------------------------------------------------------|
reproducciones 588
Acordes para:

    0 comentarios

    mostrar más comentarios

    ¿Conseguiste tocar?

    22 tocaron 4 aún no

    ¡Graba un vídeo tocando Marcha Soldado y envianoslo!

    00:00 / 00:00
    outros vídeos desta música
    repetir qualidade Automático
    Outros vídeos desta música
    00:00 / 00:00
    Automático
    OK