Cifra Club

Hunger Strike

Temple Of The Dog

Cifrado: Principal (guitarra y guitarra eléctrica)
Selo Cifra Club: esta cifra foi revisada para atender aos critérios oficiais da nossa Equipe de Qualidade.
tono: G
[Intro] G/D  Em7  G/D  Em7  G/D

[Tab - Intro]

Parte 1 de 4

   G/D                Em7
E|------------------------------------------|
B|-----0---3-----3--------0---3-----3-------|
G|---0---0---0----------0---0---0-----------|
D|-0-----------0------2-----------2---------|
A|------------------------------------------|
E|------------------------------------------|

Parte 2 de 4

   G/D
E|------------------------------------------|
B|-----0---3-----3--------0---3-----3-------|
G|---0---0---0----------0---0---0-----------|
D|-0-----------0------0-----------0---------|
A|------------------------------------------|
E|------------------------------------------|

Parte 3 de 4

                      Em7
E|------------------------------------------|
B|-----0---3-----3--------0---3-----3-------|
G|---0---0---0----------0---0---0-----------|
D|-0-----------0------2-----------2---------|
A|------------------------------------------|
E|------------------------------------------|

Parte 4 de 4

   G/D                
E|------------------------------------------|
B|-----0---3-----3--------0---3-----3-------|
G|---0---0---0----------0---0---0-----------|
D|-0-----------0------0-----------0---------|
A|------------------------------------------|
E|------------------------------------------|

[Primeira Parte] 

G              Em7
I don't mind stealing bread
  G                
From the mouths of decadence

( Em7  G )

                         Em7
But I can't feed on the powerless
         G            
When my cup's already overfilled

( Em7  G )

         Em7
But it's on the table
     G         
The fire is cooking

             Em7
And they're farming babies
        G        
While slaves are working
         Em7
Blood is on the table
         G         
And the mouths are choking
                 Em7   G  
But I'm growing hungry

[Segunda Parte] 

               C9
I don't mind stealing bread
  B/G               C9
From the mouths of decadence

( G  C9  B/G  C9 )

    G                    C9
But I can't feed on the powerless
         B/G          C9
When my cup's already overfilled

( G  C9  B/G  C9 )

G          C9
  But it's on the table
     B/G        C9
The fire is cooking
G              C9
  And they're farming babies
        B/G       C9
While slaves are working
G        Am
  And is on the table
         B/G         C9
And the mouths are choking

[Refrão] 

G                  Am
  But I'm growing hungry
          B/G     C9 
(Growing Hungry, hey)

G              Am
  I'm growing hungry
          B/G     C9 
(Growing Hungry, hey)

G              Am
  I'm growing hungry
          B/G     C9 
(Growing Hungry, hey)

G              Am
  I'm growing hungry
          B/G     C9 
(Growing Hungry, hey)

( D5  E5  D5  E5 )
( D5  E5  D5  E5 )
( D5  E5  D5  E5 )
( D5  E5  D5  E5 )
( G  Am  B/G )
( G  Am  B/G )

[Refrão] 

G              Am
  I'm growing hungry
          B/G     
(Growing Hungry, hey)

G              Am
  I'm growing hungry
          B/G      
(Growing Hungry, hey)

( D5  E5  D5  E5 )
( D5  E5  D5  E5 )
( D5  E5  D5  E5 )
( D5  E5  D5  E5 )

[Ponte] 

     G             Em7
Yeah I don't mind stealing bread
B/G             
    (Ooh, I don't mind)

     G             Em7           B/G
Yeah I don't mind stealing bread

[Refrão] 

G              Am
  I'm growing hungry
          B/G      
(Growing Hungry, hey)

G              Am
  I'm growing hungry
          B/G      
(Growing Hungry, hey)

[Final] D5  E5  D5  E5 
Otros videos de esta canción
    15.874 exhibiciones
      • ½ Tono
      • A
      • Bb
      • B
      • C
      • Db
      • D
      • Eb
      • E
      • F
      • F#
      • G
      • Ab
    • Agregar a la lista

    Afinação da cifra

    Afinador online

      Ops (: Contenido disponible solo en portugués.
      OK