Cifra Club

My Girl

The Temptations

Cifrado: Principal (guitarra y guitarra eléctrica)
tono: C
[Intro] C

[Tab - Intro]

E|----------------------------------------------------|
B|----------------------------------------------------|
G|---------2-5----------2-5---------------------------|
D|---0-2-5--------0-2-5-------------------------------|
A|-3------------3-------------------------------------|
E|----------------------------------------------------|

[Primeira Parte] 

[Tab - Primeira Parte]

E|----------------------------------------------------|
B|----------------------------------------------------|
G|---------2-5----------------------------------------|
D|---0-2-5--------------0-3---------------------------|
A|-3----------------0-3-------------------------------|
E|--------------1-3-----------------------------------|

          C       F         C
I've got sunshine   on a cloudy day
F           C          F             
  When it's   cold outside 
              C           F
I've got the month of May

[Refrão] 

C   Dm   F   G     
I guess you say   
  C       Dm      F         G
What can make me feel this way?
 C                                     
My girl, my girl, my girl 
           Dm           G        
Talking about my girl, my girl

[Segunda Parte] 

F      G      C  F                     C
  I've   got so much honey the bees envy me
F          C              F               
  I've got a sweeter song 
                      C      F
Than the birds in the   tree

[Refrão] 

      C   Dm   F   G     
Well, I guess you say   
  C       Dm      F         G
What can make me feel this way?
 C                                     
My girl, my girl, my girl 
           Dm           G        F  G
Talking about my girl, my girl, hu__m

( C  F  C  F )
( Dm  G  Em  A )

[Terceira Parte] 

         D            G     
I don't need no money
    D
Fortune or fame
G          D                   
  I've got   all the riches 
   G         D           G
Baby one man   can claim

[Refrão] 

      D   Em   G   A     
Well, I guess you say   
  D       Em      G         A
What can make me feel this way?
 D                                     
My girl, my girl, my girl 
           Em           A      G  F#m  Em
Talking about my girl, my girl 

                D
(Talking about my girl)
                                        
I've got sunshine 
                      Em
On a cloudy day with my girl
     A     G       F#m      Em                     
I've even got the month of May 
      D
With my girl 
                 Em
(Talking about, talking about)
                   A   G  F#m  Em  D
(Talking about my girl)
00:00 / 00:00
Otros videos de esta canción
Repetir
Otros videos de esta canción
Composición de Ronald White / William Robinson
11.945 exhibiciones
    • ½ Tono
    • A
    • Bb
    • B
    • C
    • Db
    • D
    • Eb
    • E
    • F
    • F#
    • G
    • Ab
  • Agregar a la lista
    00:00 / 00:00
    OK