Cifra Club

Avenue Days

Ten Second Epic

Tab de bajo: Principal
This is my very first tab ever and i love this song so i wanted to try it out and this 
what i came out with...feel free to tell me what you think or if i should change 
in it that doesnt sound right...but im like 97% sure this is right...so enjoy

Note Ring = ~
Slide = /

Intro  0:01
G-----------------------------------------------------------------|
D-----------------------------------------------------------------|
A--55--5/16-----22--2/16------------------------------------------|
E-----------------------------------------------------------------|


Verse 1  0:05
G-----------------------------------------------------------------|
D-----------------------------------------------------------------|
A--------------------------5555--------5555--222222---------------|
E--2222----00002222----0000--------0000---------------------------| Times 2


Pre Chorus  0:21
G-------------------------------------------------------------------|
D-------------------------------------------------------------------|
A----------5~/9/7/17~-----------------------------------------------|
E--222-000----------------------------------------------------------|


Chorus 0:29  Listen to the rythem
G-----------------------------------------------------------------|
D-----------------------------------------------------------------|
A--555555555555---------------------------------------------------|
E--------------00000000000022222222222222222----------------------| Times 2

G-----------------------------------------------------------------|
D-----------------------------------------------------------------|
A--555555555555-------------------------------55--5/16--22--2/16--|
E--------------00000000000022222222200000000----------------------|

Verse 2  1:00
G-----------------------------------------------------------------|
D-----------------------------------------------------------------|
A--------------------------5555--------5555--222222---------------|
E--2222----00002222----0000--------0000---------------------------| Times 2

Pre Chorus  1:17
G-------------------------------------------------------------------|
D-------------------------------------------------------------------|
A----------5~/9/7/17~-----------------------------------------------|
E--222-000----------------------------------------------------------|

Chorus  1:25
G-----------------------------------------------------------------|
D-----------------------------------------------------------------|
A--555555555555---------------------------------------------------|
E--------------00000000000022222222222222222----------------------| Times 2

G-----------------------------------------------------------------|
D-----------------------------------------------------------------|
A--555555555555-------------------------------55--5/16--2~--------|
E--------------00000000000022222222200000000----------------------|

Bridge 1:58
G-----------------------------------------------------------------|
D-----------------------------------------------------------------|
A------5~----2~---2~---2~-----------------------------------------|
E--2~-------------------------------------------------------------| Times 4

2:33
G-----------------------------------------------------------------|
D-----------------------------------------------------------------|
A----------5555---5555---5555-------------------------------------|
E--222000---------------------------------------------------------| Times 2

Chorus 2:51
G-----------------------------------------------------------------|
D-----------------------------------------------------------------|
A--555555555555---------------------------------------------------|
E--------------00000000000022222222222222222----------------------| Times 2

G-----------------------------------------------------------------|
D-----------------------------------------------------------------|
A--555555555555-------------------------------55--5/16--2~--------|
E--------------00000000000022222222200000000----------------------|

Well thats it i hope you like it...that ones for you Ian! you told me to so i did it all 
you TSE BABY! :)
-Chop
Compositor no encontrado.
13 vistas

0 comentarios

Ver todos los comentarios

¿Lograste tocar?

0 Tocaron 0 Aún no

¡Graba un video tocando Avenue Days y envíanoslo!

00:00 / 00:00
Otros videos de esta canción
Repetir Calidad Automático
Otros videos de esta canción
00:00 / 00:00
Automático
OK