Cifra Club

Count Yourself In

Ten Second Epic

Cifrado: Versão 3 (guitarra y guitarra eléctrica)
tono: C
This is the First tab im doing ....soooo......bear w/ me :s lmfao
if you have any questions...email me .. J*

Intro:

E|-------------0---------------------------------------|
B|-----------0-3--3\5-3--------------------------------|
G|-----------0-0---------------------------------------|
D|--5--4-2-2-2-----------------------------------------|
A|-7--5-3-3--------------------------------------------|
E|-----------------------------------------------------|

E|-------------0-------------------------------------|
B|-----------0-3-3\6---------------------------------|
G|-----------0-0-------------------------------------|
D|--5--4-2-2-2---------------------------------------|
A|-7--5-3-3------------------------------------------|

E|-------------0--------------------------------------|
B|-----------0-3--3\5-3-------------------------------|
G|-----------0-0--------------------------------------|
D|--5--4-2-2-2----------------------------------------|
A|-7--5-3-3-------------------------------------------|
E|----------------------------------------------------|

E|-------------0--------------------------------------|
B|-----------0-3-3\12---------------------------------|
G|-----------0-0--------------------------------------|
D|--5--4-2-2-2----------------------------------------|
A|-7--5-3-3-------------------------------------------|
E|----------------------------------------------------|

Part One.

E|-----------------------------------------------------|
B|-----------------------------------------------------|
G|-----------------------------------------------------|
D|----5--------5-5-5-5-5-------------------------------|
A|--7--7-5-2---3-3-3-3-3-------------------------------|
E|-----------------------------------------------------|
  "The Uncommon Grind From 9 to 5"


E|-----------------------------------------------------|
B|-----------------------------------------------------|
G|-----------------------------------------------------|
D|----5--------5-5-5-5---------------------------------|
A|--7--7-5-2---3-3-3-3-5-------------------------------|
E|---------------------3-------------------------------|
   "The Dead End Jobs We Try, We Try to Hide"

(Do that four times)


Chorus:

E|--------------------------------------------------------------------------------|
B|--------------------------------------------------------------------------------|
G|--------------------------------------------------------------------------------|
D|-9-9-9-9-9-9-9----7-7-7-7-7-7-7---5-5-5-5-5-5-5--2-2-2-2-2-2-2------------------|
A|-7-7-7-7-7-7-7----5-5-5-5-5-5-5---3-3-3-3-3-3-3--0-0-0-0-0-0-0------------------|
E|--------------------------------------------------------------------------------|
  " You Don't Deserve To Be Unnoticed....."

E|-------------------------------------------------------------------------------------|
B|-------------------------7-8-7---5-3-1-0-1-0-3-4-----7-8-7--5-3-1-0-1-0-1/8----------|
G|-------------------------------------------------------------------------------------|
D|-9-9-9-9-9-9-9----7------------------------------------------------------------------|
A|-7-7-7-7-7-7-7----5------------------------------------------------------------------|
E|-------------------------------------------------------------------------------------|

Go back into Part 1 and do it 4 times again


Then go back to the chorus but not the little part there though…okay..how bout just like this…

E|-------------------------------------------------------------------------------|
B|-------------------------------------------------------------------------------|
G|-------------------------------------------------2-2-2-2-2-2-2-----------------|
D|-9-9-9-9-9-9-9----7-7-7-7-7-7-7---5-5-5-5-5-5-5--2-2-2-2-2-2-2-----------------|
A|-7-7-7-7-7-7-7----5-5-5-5-5-5-5---3-3-3-3-3-3-3--0-0-0-0-0-0-0-----------------|
E|-------------------------------------------------------------------------------|

E|--------------------------------------------------------------------------------|
B|--------------------------------------------------------------------------------|
G|--------------------------------------------------------------------------------|
D|-9-9-9-9-9-9-9----7-7-7-7-7-7-7---5-5-5-5-5-5-5-5-5-5-5-5-----------------------|
A|-7-7-7-7-7-7-7----5-5-5-5-5-5-5---3-3-3-3-3-3-3-3-3-3-3-3-----------------------|
E|--------------------------------------------------------------------------------|

Then do that twice

Then it’s the little solo part…I don’t have that but I have the guitar that plays while its going. =]

E|--------------------------------------------------------------------------------|
B|--------------------------------------------------------------------------------|
G|--------------------------------------------------------------------------------|
D|---------------------------2-2-2-2-2-2-2-2-2-2-2-2------------------------------|
A|--5-5-5-5-5-5-5-5-5-5-5-5--2-2-2-2-2-2-2-2-2-2-2-2------------------------------|
E|--3-3-3-3-3-3-3-3-3-3-3-3-------------------------------------------------------|

E|---------------------------------------------------------------------------------|
B|---------------------------------------------------------------------------------|
G|---------------------------------------------------------------------------------|
D|--3-3-3-3-3-3-3-3-3-3-3-3-2-2-2-2-2-2-2-2-2-2------------------------------------|
A|--5-5-5-5-5-5-5-5-5-5-5-5-0-0-0-0-0-0-0-0-0-0------------------------------------|
E|---------------------------------------------------------------------------------|

Then it plays the Intro quietly in the background……

Then it goes back to the Chorus
then like....the last bit ..is this..

E|-------------0----------------0---------------0--------------0------------------|
B|-------------0----------------0---------------0--------------0------------------|
G|-------------0----------------0---------------0--2-2-2-2-2-2-2------------------|
D|-9-9-9-9-9-9-9----7-7-7-7-7-7-7---5-5-5-5-5-5-5--2-2-2-2-2-2-2------------------|
A|-7-7-7-7-7-7-7----5-5-5-5-5-5-5---3-3-3-3-3-3-3--0-0-0-0-0-0-0------------------|
E|--------------------------------------------------------------------------------|

E|----------------0-------------0-----0-0-------------------|
B|----------------0-------------0-----0-0-------------------|
G|----------------0-------------0-----0-0-------------------|
D|-9-9-9-9-9-9-9----7-7-7-7-7-7-7-----5-5-------------------|
A|-7-7-7-7-7-7-7----5-5-5-5-5-5-5-----3-3-------------------|
E|----------------------------------------------------------|
Composición de Andrew Usenik / Daniel Carriere / Patrick Birtles / Sandy MacKinnon
    • ½ Tono
    • A
    • Bb
    • B
    • C
    • Db
    • D
    • Eb
    • E
    • F
    • F#
    • G
    • Ab
  • Agregar a la lista

    0 comentarios

    Ver todos los comentarios

    ¿Lograste tocar?

    0 Tocaron 0 Aún no

    ¡Graba un video tocando Count Yourself In y envíanoslo!

    00:00 / 00:00
    Otros videos de esta canción
    Repetir Calidad Automático
    Otros videos de esta canción
    00:00 / 00:00
    Automático
    OK