Cifra Club

Joguei a toalha

TentaSamba

Cifrado: Principal (guitarra y guitarra eléctrica)
tono: A
[Solo]

D|-----------------------------------------------------------------|
B|------2/3--1-----------------2/3--1-------1----------------------|
G|---------------3--0--0----------------3------4/5--3--2-----------|
D|--3----------------------3------------------------------5--------|

D|-----------------------------------------------------------------|
B|---------------3--4--6-------------------------------------------|
G|--3--------5-----------------------------------------------------|
D|------4----------------------------------------------------------|

Bb7M
As malas arrumadas 
Eb7M 
Dei mais uma geral só pra ver 
Bb7M
Se não esquecia nada 
Cm7             Cm7/Bb                 Gm7 
Ela se emocionou quando viu que a separação 
             C7(9) 
Não era encenação 
               F7sus4
Ficou desesperada 
Eb7M                      
Tentou convencer, argumentar 
F/A                      Eb7M
Falar o que tinha pra falar 
               F7sus4      Bb7M 
Jogou o telefone no chão 
Eb7M
Falou que amar é perdoar 
F/A 
Mas só esqueceu de se lembrar 
Eb7M         Cm7         F7sus4  
O mau que fez pro coração 
                 
 Refrão: 
Bb7sus4 
Eu desanimei 
Eb7M
Eu fiz tudo que podia fazer 
Dm7                Gm7        Cm7 
Mas você não procurou entender 
   F7sus4         Bb7M
O nosso amor dançou 
Bb7sus4 
Eu desanimei 
Eb7M                  
Joguei a toalha, cansei 
Dm7                Gm7         Cm7 
O que vai ser amanhã, eu não sei 
 F7sus4       Bb7M
Eu desanimei
Composición de Thais Nascimento
Colaboración y revisión:
  • Amanda Ribeiro
  • João Rodrigues
380 vistas
    • ½ Tono
    • A
    • Bb
    • B
    • C
    • Db
    • D
    • Eb
    • E
    • F
    • F#
    • G
    • Ab
  • Agregar a la lista

    0 comentarios

    Ver todos los comentarios

    ¿Lograste tocar?

    0 Tocaron 0 Aún no

    ¡Graba un video tocando Joguei a toalha y envíanoslo!

    00:00 / 00:00
    Otros videos de esta canción
    Repetir Calidad Automático
    Otros videos de esta canción
    00:00 / 00:00
    Automático
    OK