Cifra Club

Aprenda

Borbucetas

Ternes Mecânico

Tablatura: Principal (guitarra)
Tom: D
(intro) Bm D Bm A D Bm G A Bm

E|---------------------------0-2-5----------
B|------2h3p2----------2h3----------3h5-3-3-
G|----4-------4-------2---------------------
D|-2h4---------4---2h4----------------------
A|------------------------------------------
E|------------------------------------------

E|-----------------------------------
B|-----------------------------------
G|--2-4-4-2--4-2---4--4-2---4-4-2----
D|-4-------4-----4--------4------4---
A|-----------------------------------
E|-----------------------------------

E|---------------------------------
B|---------------------------------
G|-2-2----2-----2--2----2-2---------
D|----4-2---4-2-----4-2----4-2-------
A|---------------------------------
E|---------------------------------

E|---------------------------------
B|-3-3-2---3-2---3--3-2---2-3-2----
G|-------4-----4--------4-------2--
D|---------------------------------
A|---------------------------------
E|---------------------------------

E|-------------
B|-------------
G|-4--4-2-4-2--
D|-4--4-2-4-2--
A|-------------
E|-------------

E|---3-3-3----0-0-0---2-2-2----
B|---3-3-3----2-2-2---2-3-2----
G|---0-0-0----2-2-2---4-4-4----
D|-0-0-0-0--2-2----------------
A|-2--------0-------2----------
E|-3---------------------------

    Bm                      D
Percebo que o brego já não passa
                       A     Bm
Você diz mas que desgraça carcar assim
     Bm                    D
Foi tudo tão bonito, mas voou pro infinito
     A             Bm
Parecido com borbucetas de um jardim

E|-------------
B|-------------
G|---6h7p6---4-
D|-7-------7---
A|-------------
E|-------------

Em          G
Agora você volta
     D                         A
E balanga o que sentia por outro alguém

(riff) 1ª parte          (riff) 2ª parte
E|-------2-3-3-           E|------------
B|-----3-------           B|------2-4-5-
G|--2h4--------           G|-----4------
D|-------------           D|--2h4-------
A|-------------           A|------------
E|-------------           E|------------

Em                   G
Dividido entre dois mundos
                A                       Bm
Sei que estou carcando mas ainda não sei em quem...

(refrão)
           G           D
Não sei dizer o que mudou
     A           Bm
Mas nada está igual
      G                D           A            Bm
Numa noite estranha a gente se estranha e fica mal
    G           D       A              Bm
Você tenta provar que tudo em nós morreu
      G            D
Borbucetas sempre voltam
     A             Bm
E o seu jardim sou eu.

(solo) Bm  D  A  F#  G  A  Bm

E|-14-14-14--15-15-15--14-14-14-14-14-14--15-15-14-14--
B|-15-15-15--15-15-15--15-15-15-15-15-15--15-15-15-15--
G|-----------------------------------------------------
D|-----------------------------------------------------
A|-----------------------------------------------------
E|-----------------------------------------------------

E|-14-14-14--15-15-15--14-14-14-14-14-14--15-15-14-14--
B|-15-15-15--15-15-15--15-15-15-15-15-15--15-15-15-15--
G|-----------------------------------------------------
D|-----------------------------------------------------
A|-----------------------------------------------------
E|-----------------------------------------------------

E|-14-14-14--15-15-15--14-14-14-14-14-14/12--12-12-12/9---9--9--
B|-15-15-15--15-15-15--15-15-15-15-15-15/14--14-14-14/10--10-10-
G|--------------------------------------------------------------
D|--------------------------------------------------------------
A|--------------------------------------------------------------
E|--------------------------------------------------------------

E|-------------
B|-------------
G|-4--4-2-4-2--
D|-4--4-2-4-2--
A|-------------
E|-------------

E|---3-3-3----0-0-0---2-2-2----
B|---3-3-3----2-2-2---2-3-2----
G|---0-0-0----2-2-2---4-4-4----
D|-0-0-0-0--2-2----------------
A|-2--------0-------2----------
E|-3---------------------------

(repete tudo)

(refrão 2x)
G            D
     sempre voltam
     A             Bm
E o seu jardim sou eu.

(final)
E|-14-14-14--15-15-15--14-14-14-14-14-14--15-15-14-14--14
B|-15-15-15--15-15-15--15-15-15-15-15-15--15-15-15-15--15
G|-------------------------------------------------------
D|-------------------------------------------------------
A|-------------------------------------------------------
E|-------------------------------------------------------
Compositor Leonardo / Pitu
Colaboración y revision:
  • Leonardo Silva
11 reproducciones
    • ½ Tom
    • A
    • Bb
    • B
    • C
    • Db
    • D
    • Eb
    • E
    • F
    • F#
    • G
    • Ab
  • Adicionar à lista

    0 comentarios

    Mostrar mais comentários

    ¿Conseguiste tocar?

    0 Tocaron 0 Ainda não

    Grave um vídeo tocando Borbucetas e mande pra gente!

    00:00 / 00:00
    outros vídeos desta música
    repetir qualidade Automático
    Outros vídeos desta música
    00:00 / 00:00
    Automático
    OK