Cifra Club

Discoteque Wreck

Terrorvision

Cifrado: Principal (guitarra y guitarra eléctrica)
Selo Cifra Club: esta cifra foi revisada para atender aos critérios oficiais da nossa Equipe de Qualidade.
tono: Bm
Hope y'all enjoy!!
E|-------------------|


Standard tuning


Intro:
|E|-------------------|------------|
|E|-------------------|------------|
|E|-------------------|------------|
|E|-------------------|--------3~--|
|--2--222-5~----2--222-5----1~--|
|--0--000-3~----0--000-3--0-----|

Chorus Riff:
|E|-------------------|E|-------------------|E|-------------------|-|
|E|-------------------|E|-------------------|E|-------------------|-|
|E|-------------------|E|-------------------|----------------7~--|
|E|-------------------|E|-------------------|------7--7--9-9-5~--|
|--2-2-5-5--7----2-2--5-5-4----2-2-5-5--7----5--5--7-7-----|
|--0-0-3-3--5-0--0-0--3-3-2-0--0-0-3-3--5-0----------------|

|E|-------------------|E|-------------------|E|-------------------|----|
|E|-------------------|E|-------------------|------3-----5----8-----|
|E|-------------------|E|-------------------|------5b7---7b9-10b12--|
|E|-------------------|E|-------------------|E|-------------------|----|
|E|-------------------|E|-------------------|E|-------------------|----|
|E|-------------------|E|-------------------|E|-------------------|----|

Verse:
   E     G     A    E     G     F#   E     G     A    C     D     F
|E|-------------------|E|-------------------|E|-------------------|-------------|
|E|-------------------|E|-------------------|E|-------------------|-------------|
|E|-------------------|E|-------------------|E|-------------------|5-----7---5--|
|------2-----5----------2-----5----------2-----5--------5-----7---3----|
|----2-----5-----7----2-----5-----4----2-----5-----7--3-----5----------|
|--0-----3-----5----0-----3-----2----0-----3-----5E|-------------------|--|

Pre-Chorus ("his collars turned up") = verse chords but palm muted playing, and stay 
strumming on C before chorus.

(Chorus = riff played after intro)

(play Verse 2 / Pre-Chorus 2 / Chorus 2)


After 2nd chorus:

|E|-------------------|E|-------------------||
|E|-------------------|E|-------------------||
|-------4b~------4b~------4b~----------|
|--2--------2--------2--------2--------|
|--2--------2--------2--------2----7~--|
|--0-x------0-x------0--x-----0-x------|


"I can mash potato":

Bass:
A|-------3--3-5----| (repeat)
E|--5--5-----------|

Guitar:
A|--0~---|
then
D|--7~---|
then
A|--0~---|

Before chorus, play F


(play chorus twice)


After last chorus:
|E|-------------------|E|-------------------|E|-------------------||
|E|-------------------|E|-------------------|E|-------------------||
|E|-------------------|E|-------------------|E|-------------------||
|------5~--7~--------5~--7~---------5~--7~-----------3~---|
|E|-------------------|E|-------------------|----------5~-------|
|--0-x-----------0-x----------0-x-----------0-x-----------|
00:00 / 00:00
Otros videos de esta canción
Repetir
Otros videos de esta canción
1 exhibiciones
    • ½ Tono
    • Am
    • Bbm
    • Bm
    • Cm
    • C#m
    • Dm
    • Ebm
    • Em
    • Fm
    • F#m
    • Gm
    • G#m
  • Agregar a la lista

Afinación de cifrado

Afinador online

    00:00 / 00:00
    OK