Cifra Club

Josephine

Terrorvision

Cifrado: Principal (guitarra y guitarra eléctrica)
Selo Cifra Club: esta cifra foi revisada para atender aos critérios oficiais da nossa Equipe de Qualidade.
tono: Am
As usual listen to the song for timings etc.
E|-------------------------------------------------------------------------------------|

Intro
       slow whammy down
E|-00-0------------|
B|-00-0------------|
G|-00-0------------|
D|-22-2------------|
A|-22-2------------|
E|-00-0------------|

E|-----------------|-----------------|-0---------------|-----------------|
B|-----------------|-----------------|-0---------------|-----------------|
G|-----------------|-----------------|-0---------------|-----------------|
D|-----------------|-----------------|-2---------------|-----------------|
A|-----------------|---------3-3-2-2-|-2---------------|---------3-3-2-2-|
E|-0-0-3-0-0-0-3-0-|-0-0-3-0---------|-0-0-3-0-0-0-3-0-|-0-0-3-0---------|

E|-------------------------------------------------------------------------------------|

Verse 1
"I had a friend called Joe, When friends were hard to find"
"He had a restless soul, And something on his mind"
"One day I went away, And when return to the scene"
"Not to find dear old Joe, no, But to find Josephine"
e|-----------------|-----------------|-0---------------|-----------------|
B|-----------------|-----------------|-0---------------|-----------------|
G|-----------------|-----------------|-0---------------|-----------------| x4
D|-----------------|-----------------|-2---------------|-----------------|
A|-----------------|---------3-3-2-2-|-2---------------|---------3-3-2-2-|
E|-0-0-3-0-0-0-3-0-|-0-0-3-0---------|-0-0-3-0-0-0-3-0-|-0-0-3-0---------|
E|-------------------------------------------------------------------------------------|

Chorus 1
"I asked her what her game was,         She said Joe had fled the scene"
E|-------0---------|-------1---------|-------0---------|-------3---------|
B|-1---------1-----|-----------1-----|-1---------1-----|-----------3-----|
G|-2-----------2---|-2-----------2---|-0-----------2---|-0-----------0---|
D|-2---------------|-3---------------|-2---------------|-0---------------|
A|-0---------------|-3---------------|-3---------------|-2---------------|
E|-----------------|-1---------------|-----------------|-3---------------|

"I asked her what her name was,         She said they call me Josephine"
E|-------0---------|-------1---------|-------0---------|-3---------------|
B|-1---------1-----|-----------1-----|-1---------1-----|-3---------------|
G|-2-----------2---|-2-----------2---|-0-----------2---|-0-(wha| mmy down)-|
D|-2---------------|-3---------------|-2---------------|-0---------------|
A|-0---------------|-3---------------|-3---------------|-2---------------|
E|-----------------|-1---------------|-----------------|-3---------------|

                    "Josephine,                         Josephine"
e|-0---------------|-----------------|-------0---------|-----------------|
B|-1---------------|-----------------|-------0---------|-----------------|
G|-2---------------|-----------------|---1-------------|-----------------|
D|-2---------------|-----------------|-2---2-----------|-----------------|
A|-0---------------|-----------------|-----------------|-----------------|
E|-----------------|-----------------|-----------------|-----------------|
E|-------------------------------------------------------------------------------------|

Verse 2
"It took a while to click, But then I got the gist"
"The girl was by my side, Was the guy I'd missed"

E|-0---------------|-----------------|-------0---------|-----------------|
B|---1-------------|-----------------|-------0---------|-----------------|
G|-----2-----------|-----------------|---1-------------|-----------------| x2
D|-------2---------|-----------------|-2---2-----------|-----------------|
A|-------0---------|-----------------|-----------------|-----------------|
E|-----------------|-----------------|-----------------|-----------------|

"I took her for a beer, To talk about old times"
"Just to find, the beer, dear, Was now a sweet white wine"
e|-0---------------|-----------------|-----------------|-----------------|
B|-1---------------|-----------------|-----------------|-----------------|
G|-2---------------|-----------------|-----------------|-----------------| x2
D|-2---------------|---------3-3-2-2-|-----------------|-----------------|
A|-0-0-3-0-0-0-3-0-|-0-0-3-0---------|-----------------|---------3-3-2-2-|
E|-----------------|-----------------|-0-0-3-0-0-0-3-0-|-0-0-3-0---------|
E|-------------------------------------------------------------------------------------|

Chorus 2
"I asked her what her game was,         She said Joe had fled the scene"
E|-------0---------|-------1---------|-------0---------|-------3---------|
B|-1---------1-----|-----------1-----|-1---------1-----|-----------3-----|
G|-2-----------2---|-2-----------2---|-0-----------2---|-0-----------0---|
D|-2---------------|-3---------------|-2---------------|-0---------------|
A|-0---------------|-3---------------|-3---------------|-2---------------|
E|-----------------|-1---------------|-----------------|-3---------------|

"I asked her what her name was,         She said they call me Josephine"
E|-------0---------|-------1---------|-------0---------|-------3---------|
B|-1---------1-----|-----------1-----|-1---------1-----|-----------3-----|
G|-2-----------2---|-2-----------2---|-0-----------2---|-0-----------0---|
D|-2---------------|-3---------------|-2---------------|-0---------------|
A|-0---------------|-3---------------|-3---------------|-2---------------|
E|-----------------|-1---------------|-----------------|-3---------------|

                    "Josephine,                         Josephine"
E|-----------------|-----------------|-----------------|-----------------|
B|---------5-------|---------5-------|---------5-------|---------8-------|
G|---------5-------|---------5-------|---------5-------|---------7-------|
D|/7-5-7-------7-5-|-7-5-7-------7-5-| /7-5-7-------7-5-|-7-5-7-------7-5-|
A|-----------------|-----------------|-----------------|-----------------|
E|-----------------|-----------------|-----------------|-----------------|

                    "Josephine,                         Josephine"
E|-----------------|-----------------|-----------------|-----------------|
B|---------5-------|---------5-------|---------5-------|---------8~------|
G|---------5-------|---------5-------|---------5-------|---------7~------|
D|/7-5-7-------7-5-|-7-5-7-------7-5-| /7-5-7-------7-5-|-7-5-7-----------|
A|-----------------|-----------------|-----------------|-----------------|
E|-----------------|-----------------|-----------------|-----------------|
E|-------------------------------------------------------------------------------------|

Bridge

"So we talked all night, And we just got along"
"Although I lost old Joe, yo, I got a new girlfriend."
e|-----------------|-12--------------|-------7---------|-7---------------|
B|-10~-------------|---10------------|---8-------------|-8---------------|
G|-----------------|-----9-----------|-7---7-----------|-7---------------|
D|-----------------|-----------------|-----------------|-----------------|
A|-----------------|-----------------|-----------------|-----------------|
E|-----------------|-----------------|-----------------|-----------------|
E|-------------------------------------------------------------------------------------|

Outro Chorus 
"I asked her what her game was,         She said Joe had fled the scene"
E|-------0---------|-------1---------|-------0---------|-------3---------|
B|-1---------1-----|-----------1-----|-1---------1-----|-----------3-----|
G|-2-----------2---|-2-----------2---|-0-----------2---|-0-----------0---|
D|-2---------------|-3---------------|-2---------------|-0---------------|
A|-0---------------|-3---------------|-3---------------|-2---------------|
E|-----------------|-1---------------|-----------------|-3---------------|

"I asked her what her name was,         She said they call me Josephine"
E|-------0---------|-------1---------|-------0---------|-------3---------|
B|-1---------1-----|-----------1-----|-1---------1-----|-----------3-----|
G|-2-----------2---|-2-----------2---|-0-----------2---|-0-----------0---|
D|-2---------------|-3---------------|-2---------------|-0---------------|
A|-0---------------|-3---------------|-3---------------|-2---------------|
E|-----------------|-1---------------|-----------------|-3---------------|

"I asked her what her game was,         She said Joe had fled the scene"
E|-----------------|-----------------|-----------------|-----------------|
B|---------5-------|---------5-------|---------5-------|---------8-------|
G|---------5-------|---------5-------|---------5-------|---------7-------|
D|/7-5-7-------7-5-|-7-5-7-------7-5-| /7-5-7-------7-5-|-7-5-7-------7-5-|
A|-----------------|-----------------|-----------------|-----------------|
E|-----------------|-----------------|-----------------|-----------------|

"I asked her what her name was,         She said they call me Josephine"
E|-----------------|-----------------|-----------------|-----------------|
B|---------5-------|---------5-------|---------5-------|---------8~------|
G|---------5-------|---------5-------|---------5-------|---------7~------|
D|/7-5-7-------7-5-|-7-5-7-------7-5-| /7-5-7-------7-5-|-7-5-7-----------|
A|-----------------|-----------------|-----------------|-----------------|
E|-----------------|-----------------|-----------------|-----------------|

                                "Josephine,                             Josephine"
E|---------------------|-----------------|---------------------|-----------------|
B|-10---10---10---10---|-----------------|-10---10---10---10---|-----------------|
G|-12br-12br-12br-12br-|-10------9-------|-12br-12br-12br-12br-|-10------9-------|
D|---------------------|-10------9-------|---------------------|-10------9-------|
A|---------------------|-8-------7-------|---------------------|-8-------7-------|
E|---------------------|-----------------|---------------------|-----------------|

                                 "Josephine"
E|---------------------|-----------------|---------------------|-----------------|
B|-10---10---10---10---|-----------------|-10---10---10---10---|-----------------|
G|-12br-12br-12br-12br-|-10------9-------|-12br-12br-12br-12br-|-10------9-------|
D|---------------------|-10------9-------|---------------------|-10------9-------|
A|---------------------|-8-------7-------|---------------------|-8-------7-------|
E|---------------------|-----------------|---------------------|-----------------|

E|-----------------|
B|-----------------|
G|-14--------------|
D|-14--------------|
A|-12--------------|
E|-----------------|

E|-------------------------------------------------------------------------------------|
00:00 / 00:00
Otros videos de esta canción
Repetir
Otros videos de esta canción
    • ½ Tono
    • Am
    • Bbm
    • Bm
    • Cm
    • C#m
    • Dm
    • Ebm
    • Em
    • Fm
    • F#m
    • Gm
    • G#m
  • Agregar a la lista

Afinación de cifrado

Afinador online

    00:00 / 00:00
    OK