Cifra Club

Killing Time

Terrorvision

Cifrado: Principal (guitarra y guitarra eléctrica)
Selo Cifra Club: esta cifra foi revisada para atender aos critérios oficiais da nossa Equipe de Qualidade.
tono: G
RHYTHM A:
E|-2h3-3-3-3-3-3-3-2h3-3-3-3-3-3-3-------------------|
B|-3-3-3-3-3-3-3-3-3-3-3-3-3-3-3-3-------------------|
G|-0-0-0-0-0-0-0-0-0-0-0-0-0-0-0-0-------------------|
D|--------------------------------------0-3bss-p0----|
A|---------------------------------0-h2--------------|
E|---------------------------------------------------|

E|-2h3-3-3-3-3-3-3-2h3-3-3-3-3-3-3-3-5-3-------------|
B|-3-3-3-3-3-3-3-3-3-3-3-3-3-3-3-3-------6-3---------|
G|-0-0-0-0-0-0-0-0-0-0-0-0-0-0-0-0-------------------|
D|---------------------------------------------------|
A|---------------------------------------------------|
E|---------------------------------------------------|

RHYTHM B:
|-2h3-3-3-3-3-3-3-2h3-3-3-3-3-3-3-| Am  C  G
|-3-3-3-3-3-3-3-3-3-3-3-3-3-3-3-3-|
|-0-0-0-0-0-0-0-0-0-0-0-0-0-0-0-0-|
E|---------------------------------|
B|---------------------------------|
G|---------------------------------|

RHYTHM C:
|D / / / |Am / / / |C / / / |D / / / |

h =3D hammer on
bss =3D bend slightly sharp
p =3D pull off

THE SONG

INTRO:
Rhythm A (x2)

VERSE 1 (Rhythm B):
Maybe someday soon
Then I'll find out what it's all about
And if you don't leave it too long
Then maybe we'll be able to sort it out.

Rhythm A

VERSE 2 (Rhythm B):
Give me five minutes more
I'm not trying to turn you away
Spend all my time asking you what's wrong
But all you say is you can't explain.

CHORUS (Rhythm C):
I hope it'll all come true
Then I can find it out for myself
I wish it'd all come true
And let it sort things out for itself

VERSE 3 (Rhythm B):
Leave me to myself for awhile
It'll only hurt more now if you stay
I don't know how to break the news
But maybe we'll be better off this way
00:00 / 00:00
Otros videos de esta canción
Repetir
Otros videos de esta canción
    • ½ Tono
    • A
    • Bb
    • B
    • C
    • Db
    • D
    • Eb
    • E
    • F
    • F#
    • G
    • Ab
  • Agregar a la lista

Afinación de cifrado

Afinador online

    00:00 / 00:00
    OK