Cifra Club

Some People Say

Terrorvision

Cifrado: Principal (guitarra y guitarra eléctrica)
Selo Cifra Club: esta cifra foi revisada para atender aos critérios oficiais da nossa Equipe de Qualidade.
tono: Em
Main rhythm:
   Em                      F#11 (?)
E|-------0-0------0--------------0-0-------0---------|
B|-------0-0------0--------------0-0-------0---------|
G|-------0-0------0--0-0-0-------0-0-------0--0-0-0--|
D|--2-2--2-2--2-2-2--2-2-2--4-4--4-4--4-4--4--4-4-4--| (repeat)
A|--2-2--2-2--2-2-2--2-2-2--4-4--4-4--4-4--4--4-4-4--|
E|--0-0--0-0--0-0-0---------2-2--2-2--2-2--2---------|
note: not sure the best name for this F# chord since it has a minor 9th, an 11th and a minor 14th or 7th.

[Verse 1]
Em                             F#11
Some people say that what I know should be kept secret
Em                             F#11
Some people say I don't know anything at all
C              D            Em
Some people say that what I do could be dangerous
C              D          F#m
Some people say I don't do anything at all

Em                        F#11
Some people say this is a song that needs the drums in
Em                        F#11
Some people say no it's a song for the bass
Em                           F#11
Some people say that they can't stand what they're hearing
Em                        F#11
Some people say who gives a damn what they say

[Chorus]
         C                    D
Do you think I care, do you think I care
       Em
Do you think I know or I'm aware
        C            D                     F#m
Do you think I care what you say when I'm oblivious


Em                      F#11
Some people say that I look just like my father
Em                         F#11
Some people say I've got my mother's eyes
Em                          F#11
Some people say I'm like my brother 'cos I'm honest and truthful
Em                           F#11
Some people say they know my brother's just another lie

Chorus 2x (between choruses use Em instead of F#m)

[Original solo]
     C                  D                 Em
E|-------------------------------/8\--/8\--/8\-------------------------------------|
B|------------/5\--/5\--/8\--/8\---------------------------------------------------|
G|---/5\--/5\-----------------------------------------------------------/9\--/9\---|
D|---------------------------------------------/5\--/5\--/5\--/9\--/9\-------------|
A|---------------------------------------------------------------------------------|
E|---------------------------------------------------------------------------------|
  C                   D                  F#m
E|------------------------------------------------|
B|-------------------------------------------7~---|
G|-------------------------------------------x----|
D|--------------------------------/7\--/7\---4~---|
A|--/3\--/3\--/7\--/7\--/9\--/9\------------------|
E|------------------------------------------------|

[Live solo] (2000s, e.g. Take the money and run), starts earlier:
(F#m)                       C            D
E|--------------------------------------------------------|
B|--7--7--7--7--7--7--------------------------------------|
G|--9b-9b-9b-9b-9b-9b-------------------------------------|
D|--------------------7p5------------5-7----------7-9-----|
A|------------------------7--3-3-5/7------5-5-7/9---------|
E|--------------------------------------------------------|
Em                         C            D           F#m
E|----------------------------------------------------------|
B|--5--5--5--5--5--5-----------------------------------7~---|
G|--7b-7b-7b-7b-7b-7b----------------------------------x----|
D|--------------------7p5------------5-7----------7-9--4~---|
A|------------------------7--3-3-5/7------5-5-7/9-----------|
E|----------------------------------------------------------|

Em                            F#11
Some people say that we should let the search continue
Em                           F#11
Some people say just what the hell's going on
00:00 / 00:00
Otros videos de esta canción
Repetir
Otros videos de esta canción
1 exhibiciones
    • ½ Tono
    • Am
    • Bbm
    • Bm
    • Cm
    • C#m
    • Dm
    • Ebm
    • Em
    • Fm
    • F#m
    • Gm
    • G#m
  • Agregar a la lista

Afinación de cifrado

Afinador online

    00:00 / 00:00
    OK