Cifra Club

What Makes You Tick

Terrorvision

Cifrado: Principal (guitarra y guitarra eléctrica)
Selo Cifra Club: esta cifra foi revisada para atender aos critérios oficiais da nossa Equipe de Qualidade.
tono: Em
E|-------------------------------------------------------------------------------------|

Intro
Dist
"I'll find out just what it is,"
"I'll find out"
E|----0-----------------|-----------------------|
B|----0-----------------|-------------2b--2p0---|
G|--------2h0-2h0--2-h0-|-4---4-4--2----------0-| x7
D|----------------------|-4---4-4--2------------|
A|----------------------|-2---2-2--0------------|
E|-0--------------------|-----------------------|

Clean
"What makes you tick tock tick tock."
E|-3---------------|-3---------------|
B|-3---------------|-3---------------|
G|-0---------------|-0---------------|
D|-0---------------|-0---------------|
A|-2---------------|-2---------------|
E|-3---------------|-3---------------|

Dist
"I'll find out just what it is,"
"I'll find out"
E|----0-----------------|-----------------------|
B|----0-----------------|-------------2b--2p0---|
G|--------2h0-2h0--2-h0-|-4---4-4--2----------0-| x4
D|----------------------|-4---4-4--2------------|
A|----------------------|-2---2-2--0------------|
E|-0--------------------|-----------------------|

Clean
"What makes you tick tock tick tock."
E|-3---------------|-3---------------|
B|-3---------------|-3---------------|
G|-0---------------|-0---------------|
D|-0---------------|-0---------------|
A|-2---------------|-2---------------|
E|-3---------------|-3---------------|

E|-------------------------------------------------------------------------------------|

Verse 1
"You've got no chance of getting bored, You've got our consciences to play with"
"You've got the masses and the hordes, Just waiting for you to tell them how to live"
"I can take my time, take my time, take my time, take my time,"
"take my time, take my time, take my time, take my time"
"I've got the time to take my time, I've got the time to take my time"
"I've got the time to take my time"
"I've got the time to"

(x4 clean then last 2 times with dist)
E|---------1-------|---------1-------|---------1-------|---------0-------|
B|-----3-------3---|-----3-------3---|-----3-------3---|-----3-------3---|
G|-----------------|-----------------|-----------------|-----------------| x6
D|-0---------------|-----------------|-----------------|-----------------|
A|-----------------|-3---------------|-2---------------|-1---------------|
E|-----------------|-----------------|-----------------|-----------------|

Dist
"I'll find out just what it is,"
"I'll find out"
E|----0-----------------|-----------------------|
B|----0-----------------|-------------2b--2p0---|
G|--------2h0-2h0--2-h0-|-4---4-4--2----------0-| x4
D|----------------------|-4---4-4--2------------|
A|----------------------|-2---2-2--0------------|
E|-0--------------------|-----------------------|

Clean
"What makes you tick tock tick tock."
E|-3---------------|-3---------------|
B|-3---------------|-3---------------|
G|-0---------------|-0---------------|
D|-0---------------|-0---------------|
A|-2---------------|-2---------------|
E|-3---------------|-3---------------|

E|-------------------------------------------------------------------------------------|

Verse 2
"You built your house on promised land, You've got no chance of getting moved along,"
"You've got the whole world in your hands, A million people trying to sing your song."
"I can take my time, take my time, take my time, take my time,"
"take my time, take my time, take my time, take my time"
"I've got the time to take my time, I've got the time to take my time"
"I've got the time to take my time"
"I've got the time to"

(x4 clean then last 2 times with dist)
E|---------1-------|---------1-------|---------1-------|---------0-------|
B|-----3-------3---|-----3-------3---|-----3-------3---|-----3-------3---|
G|-----------------|-----------------|-----------------|-----------------| x6
D|-0---------------|-----------------|-----------------|-----------------|
A|-----------------|-3---------------|-2---------------|-1---------------|
E|-----------------|-----------------|-----------------|-----------------|

E|-------------------------------------------------------------------------------------|

Solo 
(theres a lot of slides and bends etc, give me a correction if you can work it out!)

Riff over solo
"I've got the time to, I've got the time to, I've got the time to"
"I'll find out"
E|-----------------|-----------------|-----------------|-----------------|
B|-----------------|-----------------|-----------------|-----------------|
G|-9-------------9-|-7-------------7-|-6-------------6-|-5-------4-------| x4
D|-9-------------9-|-7-------------7-|-6-------------6-|-5-------4-------|
A|-7-------------7-|-5-------------5-|-4-------------4-|-3-------2-------|
E|-----------------|-----------------|-----------------|-----------------|

Solo outro
"I'll find out, I'll find out, I'll find out"
E|-----------------|-----------------|-----------------|-----------------|
B|-----------------|-----------------|-----------------|-----------------|
G|-----------------|-----------------|-----------------|-----------------|
D|-----------------|-----------------|-/12-------------|-(12)------------|
A|-5---------------|-(5)-------------|-----------------|-----------------|
E|-----------------|-----------------|-----------------|-----------------|

"Take the time, Take the time, Take the time, Take the time,"
"Take the time, Take the time, Take the time, Take the time,"
E|-----------------|-----------------|-----------------|-----------------|
B|-----------------|-----------------|-----------------|-----------------|
G|-----------------|-----------------|-----------------|-----------------|
D|-----------------|-----------------|-----------------|-----------------|
A|-5-------------5-|-3-------------3-|-2-------------2-|-1-------------1-|
E|-----------------|-----------------|-----------------|-----------------|

"Take the time, Take the time, Take the time, Take the time,"
"Take the time, Take the time, Take the time, Take the time,"
E|-----------------|-----------------|-----------------|-----------------|
B|-----------------|-----------------|-8---8---8---8---|-11--11--11--11--|
G|-----------------|-----------------|-7---7---7---7---|-10--10--10--10--|
D|-7---7---7---7---|-10--10--10--10--|-5---5---5---5---|-8---8---8---8---|
A|-5---5---5---5---|-8---8---8---8---|-----------------|-----------------|
E|-----------------|-----------------|-----------------|-----------------|

"Take the time, Take the time, Take the time, Take the time," (lots!)
E|----0-----------------|-----------------------|
B|----0-----------------|-------------2b--2p0---|
G|--------2h0-2h0--2-h0-|-4---4-4--2----------0-| x4
D|----------------------|-4---4-4--2------------|
A|----------------------|-2---2-2--0------------|
E|-0--------------------|-----------------------|

E|-------------------------------------------------------------------------------------|

Outro

"From now I'm never getting bored, 'Cos I've just stolen what they wouldn't give"
"And now I'm happier than before,"
E|-----------------|-------------------------|
B|-----------------|-12-12-12-12-10-10-10-10-|
G|-9-9-9-9-9-9-9-9-|-11-11-11-11-9--9--9--9--| x3
D|-9-9-9-9-9-9-9-9-|-9--9--9--9--7--7--7--7--|
A|-7-7-7-7-7-7-7-7-|-------------------------|
E|-0-0-0-0-0-0-0-0-|-------------------------|

"With no-one showing me the way to,"
"Tick tock" (lots)
E|-----------------|-----------------|-3---------------|-----------------|
B|-----------------|-----------------|-3---------------|-----------------|
G|-----9-----------|-----------------|-0---------------|-----------------|
D|-----9-----------|-9-------7-------|-0---------------|-----------------|
A|-----7-----------|-9-------7-------|-2---------------|-----------------|
E|-0---------------|-7-------5-------|-3---------------|-3---------------|

E|-------------------------------------------------------------------------------------|
00:00 / 00:00
Otros videos de esta canción
Repetir
Otros videos de esta canción
1 exhibiciones
    • ½ Tono
    • Am
    • Bbm
    • Bm
    • Cm
    • C#m
    • Dm
    • Ebm
    • Em
    • Fm
    • F#m
    • Gm
    • G#m
  • Agregar a la lista

Afinación de cifrado

Afinador online

    00:00 / 00:00
    OK