Cifra Club

Call It What You Want

Tesla

Cifrado: Principal (guitarra y guitarra eléctrica)
Selo Cifra Club: esta cifra foi revisada para atender aos critérios oficiais da nossa Equipe de Qualidade.
tono: Fm
     INTRO

E|------------------------------------|
B|------------------------------------|
G|------0-----0---------0-----0-------|
D|----2---2-----2-----0---0-----0-----|
A|--3-------3-----3-2-------2-----2---|
E|------------------------------------|


E|------------------------------------|
B|------------------------------------|
G|------0-----0---------0-----0-------|
D|----2---2-----2-----2---2-----2-----|
A|--0-------0-----0-0-------0-----0---|
E|------------------------------------|


E|-------------------------------------|
B|-------------------------------------|
G|------0-----0---------0-----0--------|
D|----2---2-----2-----0---0-----0------|
A|--3-------3-----3-2-------2-----2----|
E|----------------------------------3--|
                                        |
                                    hold for 8


     VERSE 1 and 2

     repeat this part 3xs

E|-------------------------------------|
B|-------------------------------------|
G|------0-----0---------0-----0--------|
D|----2---2-----2-----0---0-----0------|
A|--3-------3-----3-2-------2-----2----|
E|-------------------------------------|


E|-------------------------------------|
B|-------------------------------------|
G|------0-----0---------0-----0--------|
D|----2---2-----2-----0-----0---0------|
A|--0-------0-----0-1-----2-------0----|
E|-------------------------------------|

     now here is where it goes from verse to
     pre chorus 1

E|-------------------------------------|
B|-------------------------------------|
G|------0-----0---------0-------0------|
D|----2---2-----2-----0---0---0---0----|
A|--3-------3-----3-2-------2----------|
E|-------------------------------------|


      PD  CHORUS 1 and 2

E|-------------------------------------|
B|-------------------------------------|
G|-------------------------------------|
D|-------------------------------------|
A|--2--2-2-2-2-2-3--3-3-3-3-3-3--------|
E|--0--0-0-0-0-0-1--1-1-1-1-1-1--------|


E|-------------------------------------|
B|-------------------------------------|
G|-------------------------------------|
D|--2--2-2-2-2-2-3--3-3-3-3-3-3--------|
A|--0--0-0-0-0-0-1--1-1-1-1-1-1--------|
E|-------------------------------------|


E|-------------------------------------|
B|-------------------------------------|
G|-------------------------------------|
D|--4--4-4-4-4-4-5---------------------|
A|--2--2-2-2-2-2-3--3-2-0-3-2-0--------|
E|------------------------------0-3----|

     CHORUS

     I'm only going to show chords here. You'll
     have to figure out the strumming yourself.

E|--3----------------0------------------|
B|--3----------------0------------------|
G|--0----------------0------------------|
D|--0----------------2------------------|
A|--2----------------2------------------|
E|--3----------------0------------------|


E|--1-----------------3-----------------|
B|--1-----------------3-----------------|
G|--1-----------------0-----------------|
D|--3-----------------0-----------------|
A|--3-----------------2--3-2-0-3-2-0-3--|
E|--1-----------------3-----------------|


E|--0-----------------3-----------------|
B|--0-----------------3-----------------|
G|--0-----------------5-----------------|
D|--2-----------------5-----------------|
A|--2-----------------3-----------------|
E|--0-----------------------------------|


E|--3-----------------------------------|
B|--3-----------------------------------|
G|--0-----------------------------------|
D|--0-----------------------------------|
A|--2-----------------------------------|
E|--3-----------------------------------|
        |
     Hold for 8


     Here is the turnaround into verse 2

E|--------------------------------------|
B|--------------------------------------|
G|------------------0-----0-------------|
D|----------0-2---2---2-----2-----------|
A|----0-2-3-----0-------0-----0---------|
E|--3-----------------------------------|


E|--------------------------------------|
B|--------------------------------------|
G|------0-----0---------0-----0---------|
D|----0-----0---0-----2---2-----2-------|
A|--1-----2-------2-0-------0-----0-----|
E|--------------------------------------|


E|--------------------------------------|
B|--------------------------------------|
G|------0-------------------------------|
D|----0---------------------------------|
A|--1-----2-----------------------------|
E|--------|-----------------------------|
              |
          hold for 8


      Then we go into verse 2, pre chorus 2
      and then play chorus 2xs.


      Here is a one of the harmony parts.
      (I recommend learning the definition of a
       harmony to figure out second guitar part.
       This will help you figure out other harmonies
       in the future).
      Also, in this example I only show the notes
       without bending strings. You will have to
       accent the bends yourself.

      HARMONY PART

E|----------------------------------------|
B|----------------------------------------|
G|-------------------9-----------9--------|
D|--5---5-7-9-----10---10-9---10----10-9--|
A|------------7---------------------------|
E|----------------------------------------|


E|--------------------------------------|
B|--------------------------------------|
G|--------------------------------------|
D|---5-7-9-5----------------------------|
A|---------|----------------------------|
E|---------|----------------------------|
               |
           hold for 8


      After that is first guitar solo
      (rhythm plays chorus here).


     VERSE 3

     repeat this part 3xs

E|--------------------------------------|
B|--------------------------------------|
G|------0-----0---------0-----0---------|
D|----2---2-----2-----0-----0---0-------|
A|--0-------0-----0-1-----2-------2-----|
E|--------------------------------------|

      here we go from verse 3 to pre chorus
      part 3

E|--------------------------------------|
B|--------------------------------------|
G|------0-----0---------0-----0---------|
D|----2---2-----2-----0-----0---0-------|
A|--0-------0-----0-1-----2-------------|
E|--------------------------------------|

      PD  CHORUS 3


E|--------------------------------------|
B|--------------------------------------|
G|--------------------------------------|
D|--2--2-2-2-2-2-3--3-3-3-3-3-3---------|
A|--0--0-0-0-0-0-1--1-1-1-1-1-1---------|
E|--------------------------------------|


E|--------------------------------------|
B|--------------------------------------|
G|--------------------------------------|
D|--4--4-4-4-4-4-5--5-5-5-5-5-5---------|
A|--2--2-2-2-2-2-3--3-3-3-3-3-3---------|
E|--------------------------------------|


E|--------------------------------------|
B|--------------------------------------|
G|--------------------------------------|
D|--6--6-6-6-6-6-7--7-7-7-7-7-7---------|
A|--4--4-4-4-4-4-5--5-5-5-5-5-5---------|
E|--------------------------------------|


E|--6-6---6-6---6-6---6-6-6-6-6-6-------|
B|--9-8---9-8---9-8---9-8-9-8-6-6-------|
G|--6-6---6-6---6-6---6-6-6-6-6-8-------|
D|--8-8---8-8---8-8---8-8-8-8-8-8-------|
A|--6-6---6-6---6-6---6-6-6-6-6-6-------|
E|--------------------------------------|


     Next, play chorus 2xs.
     Then play harmony part.

     Then we have guitar solo 2.
     (rhythm plays chorus here).


     And finally, here is the end.
     Once again, I only show one guitar part.
     Also, again I show just the notes without the
     bends.


      ENDING HARMONY


E|---------------------------------------|
B|---------------------------------------|
G|--8-7-5--------------------------------|
D|--------8-7-5-8-7-5--------------------|
A|--------------------8-7-5-8-7-5--------|
E|---------------------------------------|


E|---------------------------------------|
B|---------------------------------------|
G|---------------------------------------|
D|---------------------------------------|
A|--6-5-3-6-5-3--------------------------|
E|--------------6-5-3-6-5-0-3------------|
                                |
                               hold
Otros videos de esta canción
    24 exhibiciones
      • ½ Tono
      • Am
      • Bbm
      • Bm
      • Cm
      • C#m
      • Dm
      • Ebm
      • Em
      • Fm
      • F#m
      • Gm
      • G#m
    • Agregar a la lista

    Afinação da cifra

    Afinador online

      Ops (: Contenido disponible solo en portugués.
      OK