Cifra Club

Edisons Medicine

Tesla

Cifrado: Principal (guitarra y guitarra eléctrica)
Selo Cifra Club: esta cifra foi revisada para atender aos critérios oficiais da nossa Equipe de Qualidade.
tono: Dm
intro
E|--------------|-------------------------|----------------------------|
B|--------------|-------------------------|----------------------------|
G|--------------|-------------------------|----------------12h====14---|
D|--------------|-------------------5-----|-5h6h7-(7)--/14-------------|
A|--------------|-------5-----5h6h7---6h7-|----------------------------|
E|---------19\--|-0-6h7---6h7-------------|----------------------------|


E|--------------------|-12---------(12)-(12)--|
B|--------------------|-----------------------|
G|-9h12p9s7h9p7p0-----|-----------------------|
D|--------------------|-----------------------|
A|--------------------|-----------------------|
E|--------------------|-----------------------|

  
E|-----------------------------------|
B|-----------------------------------|
G|-----------------------------------|
D|-----------------------------------|
A|--------0--0-0-0-0-(0)-0-0h3p0h3p0-|
E|-----------------------------------|




E|-----------------------------|-------------------------------|
B|-----------------------------|-------------------------------|
G|-----------------------------|-------------------------------|
D|-----------------------------|-------------------------------|
A|--0-0-0-0-0--(0)-0-0h3p0h3p0-|--0-0-0-0-0--(0)-0---0h3p0h3p0-|
E|-----------------------------|-------------------------------|

   

E|-------------------------------|
B|-------------------------------|
G|-------------------------------|
D|-------------------------------|
A|---0--0-0-0-0-(0)-0-0h3p0h3p0--|
E|-------------------------------|




E|-----------------------------------|--------------------------------------|
B|-----------------------------------|--------------------------------------|
G|-----------------------------------|------------------------------5-------|
D|-----------------------------------|---------------------------------7p5--|
A|--0--0-0---0---0--(0)--0-0h3p0h3p0-|-0---0-0---0---0--(0)--0h5h7---------7|
E|-----------------------------------|--------------------------------------|



E|---------------------------------|-----------------|--------| |
B|---------------------------------|-----------------|--------| |
G|---------------------------------|-----------------|--------| |
D|------------------------------3--|-(3)-------------|-(3)----| |
A|-0--0-------0-----0-0-(0)-0-0-1--|-(1)-------------|-(1)----| |
E|---------------------------------|-----------------|--------| |


   1st, 2nd, 3rd Verses
||------------------|--------------|--------------|----------------|
||o-------------8---|--------------|--------------|----------------|
||--7-7-7-7-------7-|-6-6-6--------|-5-5-5-5------|-----0------0---|
||--5-5-5-5---5-----|-5-5-5--------|-5-5-5-5------|---2------2-----|
||o-----------------|--------------|--------------|-4------3-------|
||------------------|--------------|--------------|----------------|



E|-----------------|--------------|------------------|----------------| |
B|-------------8---|--------------|------------------|----------------| |
G|-7-7-7-7-------7-|-6-6-6--------|-5-5-5-5----------|----------------| |
D|-5-5-5-5---5-----|-5-5-5--------|-5-5-5-5----------|------3-(3)-----| |
A|-----------------|--------------|------------------|-1-----------3--| |
E|-----------------|--------------|-----------/12\---|----------------| |



 Pre Chorus
E|-----------------|-------------|-----------------|---------------|
B|-----1-----1-----|-1-----------|-----1-----1-----|-1----------3--|
G|-----------------|-------------|-----------------|------------2--|
D|---2-----2-----0-|-------3-----|---2-----2-----0-|-------3-2--0--|
A|-0---------------|-----3-----2-|-0---------------|-----3---2-----|
E|-------3-----2---|---1-----0---|-------3-----2---|---1-----0-----|


E|-----------------|-------------|-----------------|---------------|
B|-----1-----1-----|-1-----------|-----1-----1-----|-1----------3--|
G|-----------------|-------------|-----------------|------------2--|
D|---2-----2-----0-|-------3-----|---2-----2-----0-|-------3-2--0--|
A|-0---------------|-----3-----2-|-0---------------|-----3---2-----|
E|-------3-----2---|---1-----0---|-------3-----2---|---1-----0-----|



E|--------------------------20b21====|
B|-----------------------------------|
G|-----------------------------------|
D|-----------------------------------|
A|-0---------------------------------|
E|-----------------------------------|



E|-(20)-20-20b21-20---20b21============(20)\--|--------------------22b23====|
B|--------------------------------------------|-----------------------------|
G|--------------------------------------------|-----------------------------|
D|--------------------------------------------|-----------------------------|
A|--------------------------------------------| 0----------------------------|
E|--------------------------------------------|-----------------------------|

E|-(22)-22-22b23-22---22b25======(22)--(22)-(22)\--| |
B|------------------------------------------------o| |
G|-------------------------------------------------| |
D|-------------------------------------------------| |
A|------------------------------------------------o| |
E|-------------------------------------------------| |



 Chorus
E|----------------|-------------------|----------------|-----------------|
B|----------------|-------------------|----------------|-----------------|
G|-2--------------|-------------------|-5-----------2--|-(2)------2------|
D|-2----2-(2)--3--|-(3)---------------|-5----5-(5)--2--|-(2)------2------|
A|-0----2-(2)--3--|-(3)-3-3-3-3-3-3---|-3----5-(5)--0--|-(0)--0-0----0-0-|
E|------0-(0)--1--|-(1)-1-1-1-1-1-1-0-|------3-(3)-----|-----------------|

                            To Coda
E|----------------|-------------------|---------------------| |
B|----------------|-------------------|---------------------| |
G|-2--------------|-------------------|-5-----------2--(2)--| |
D|-2----2-(2)--3--|-(3)---------------|-5----5-(5)--2--(2)--| |
A|-0----2-(2)--3--|-(3)-3-3-3-3-3-3---|-3----5-(5)--0--(0)--| |
E|------0-(0)--1--|-(1)-1-1-1-1-1-1-0-|------3-(3)----------| |
|
| Gtr II
| 
E|----------------|-------------------|---------------------| |
B|----------------|-------------------|---------------------| |
G|----------------|-------------------|-5-------------------| |
D|----------------|-------------------|-5----5-(5)----------| |
A|----------------|-------------------|-3----5-(5)--0--(0)--| |
E|----------------|-------------------|------3-(3)----------| |


 Interlude
E|------------|------------|------------|-------0-----0-------|
B|------------|------------|------------|-----0-----0------0--|
G|-(2)--------|-(2)--------|-(2)--------|-14------9-----10----|
D|-(2)--------|-(2)--------|-(2)--------|---------------------|
A|-(0)--------|-(0)--------|-(0)--------|---------------------|
E|------------|------------|------------|---------------------|
|
| 
E|------------|------------|------------|---------------------|
B|------------|------------|------------|---------------------|
G|------------|------------|------------|---------------------|
D|------------|------------|------------|---------------------|
A|-(0)--------|-(0)--------|-(0)--------|-(0)-----------------|
E|------------|------------|------------|---------------------|



E|--0------0------------|------------------|------------|------0-----0------|
B|-------0--------------|------------------|------------|----0-----0------0-|
G|-----7-----9-7-5-(5)\-|-------0-----0----|------------|-14-----9-----10---|
D|----------------------|-----2-----5---2--|-(2)--------|-------------------|
A|----------------------|--3------5-----0--|-(0)--------|-------------------|
E|----------------------|------------------|------------|-------------------|
|



E|--0------0------------|-------------------|--------| |
B|-------0--------------|-------------------|--------| |
G|-----7-----9---5-(5)\-|------0-------0----|--------| |
D|----------------------|----2------5----2--|-(2)----| |
A|----------------------|-3------5-------0--|-(0)----| |
E|----------------------|-------------------|--------| |
|
| 
E|----------------------|-------------------|--------| |
B|----------------------|-------------------|--------| |
G|-(4)------------------|-------------------|--------| |
D|-(2)------------------|-5--------------2--|-(2)----| |
A|----------------------|-3------5-(5)---0--|-(0)----| |
E|----------------------|--------3-(3)------|--------| |


  Gtr III
E|----------5--------|----------------------|
B|------5-8------5---|-(5)-----8-5----------|
G|--5-7-------5------|-------------7-5------|
D|-------------------|------------------7---|
A|-------------------|----------------------|
E|-------------------|----------------------|
|
|
E|------0-----0------|--0------0------------|
B|----0-----0------0-|-------0--------------|
G|-14-----9-----10---|-----7-----9-7-5-(5)\-|
D|-------------------|----------------------|
A|-------------------|----------------------|
E|-------------------|----------------------|


E|----------------------|---------------------|
B|--5-------------------|---------------------|
G|----------7--(7)------|---------------------|
D|-------------------7--|-(7)-----------------|
A|----------------------|---------------------|
E|----------------------|---------------------|
|
|
E|----------------------|---------------------|
B|----------------------|---------------------|
G|-------0---------0----|-------2-4-5-4--(4)/-|
D|-----2--------5----2--|-(2)-2---------------|
A|--3-------5--------0--|-(0)-----------------|
E|----------------------|---------------------|



E|-----------5--------|--------------------------|
B|-------5-8------5---|-(5)-----8--5-------------|
G|--5--7-------5------|-----------------7-5------|
D|--------------------|----------------------7---|
A|--------------------|--------------------------|
E|--------------------|--------------------------|
|
|  
E|-------0-----0------|--0------0----------------|
B|-----0-----0------0-|-------0------------------|
G|-14------9-----10---|-----7------9----7-5-(5)\-|
D|--------------------|--------------------------|
A|--------------------|--------------------------|
E|--------------------|--------------------------|
|



E|-------------5--|-(5)---------------| |
B|-5--------------|-------------------| |
G|------7-(7)-----|-------------------| |
D|----------------|-------------------| |
A|----------------|-------------------| |
E|----------------|-------------------| |
|
| 
E|----------------|-------------------| |
B|----------------|-------------------| |
G|-5-----------2--|-(2)---------------| |
D|-5----5-(5)--2--|-(2)---------------| |
A|-3----5-(5)--0--|-(0)---------------| |
E|------3-(3)-----|-------------------| |
|
|
E|----------------|-------------------| |
B|----------------|-------------------| |
G|-5-----------2--|-(2)--------(2)----| |
D|-5----5-(5)--2--|-(2)--------(2)----| |
A|-3----5-(5)--0--|-(0)--------(0)----| |
E|------3-(3)-----|-------------------| |

 

Guitar Solo
E|-----------------------------|-------------------------------|
B|-20------20----(20)--20------|-(20)-20----20-----------------|
G|-19b21---19b21-(19)--19b21===| =(19)-19b21-19-17--------------|
D|-----------------------------|------------------19---(19)\---|
A|-----------------------------|-------------------------------|
E|-----------------------------|-------------------------------|
|
|
E|-----------------------------|-------------------------------|
B|-----------------------------|-------------------------------|
G|--2--------------------------|-------------------------------|
D|--2-------2-----(2)---3------|--(3)--------------------------|
A|--0-------2-----(2)---3------|--(3)--3-----3--3--3-3---3-----|
E|----------0-----(0)---1------|--(1)--1-----1--1--1-1---1---0-|


E|--------17------------------------------------------|
B|-----17-------17-20----17-18p=17----17--------------|
G|-17--------17-------17-----------19----19-17-17s16--|
D|----------------------------------------------------|
A|----------------------------------------------------|
E|----------------------------------------------------|
|
| 
E|----------------------------------------------------|
B|----------------------------------------------------|
G|--5-------------------------------------2-----------|
D|--5------------------5----(5)-----------2-----------|
A|--3------------------5----(5)-----------0-----------|
E|---------------------3----(3)-----------------------|



E|-----------------------------------------------|
B|-----------------------------------------------|
G|-14--16-14-12----------------------------------|
D|--------------14-13-12-10-12p10----------------|
A|--------------------------------12-12----(12)\-|
E|-----------------------------------------------|
|
|
E|-----------------------------------------------|
B|-----------------------------------------------|
G|-(2)-----------------------2-------------------|
D|-(2)-----------------------2-------------------|
A|-(0)-----------0-----0--------------0--0-------|
E|-----------------------------------------------|

  

E|--------------------|-------------------|------------------| |
B|--------------------|-------------------|------------------| |
G|--------------------|-------------------|------------------| |
D|--------------------|-------------------|------------------| |
A|-3--5---------3-7-6-|--5--3-------------|--------5-(5)-----| |
E|------0-3--5--------|-------5-3-5-------|-5--3-0-----------| |
|
|
E|--------------------|-------------------|------------------| |
B|--------------------|-------------------|------------------| |
G|-2------------------|-------------------|-5-------------7--| |
D|-2------2-(2)---3---|-(3)---------------|-5------5-(5)--7--| |
A|-0------2-(2)---3---|-(3)-3-3-3-3-3-3---|-3------5-(5)--5--| |
E|--------0-(0)---1---|-(1)-1-1-1-1-1-1-0-|--------3-(3)-----| |


  Gtr I
E|-----3p2----------|--------3---------3--|
B|---------3--------|------3---------3----|
G|-----------2--2-4-|--5---------4--------|
D|------------------|---------------------|
A|------------------|---------------------|
E|------------------|---------------------|
|
|                     
E|------------------|---------------------|
B|------------------|---------------------|
G|-(7)--------------|-(7)-------(7)-------|
D|-(7)--------------|---------------------|
A|-(5)--------------|---------------------|
E|------------------|---------------------|

                             

E|----------1-1-(1)--------|----------------| |
B|-------3------(3)---(3)s=| =15-------15\---||
G|--3---(3)-----(3)---(3)s=| =15-------15\---||
D|-------------------------|----------------| |
A|-------------------------|----------------| |
E|-------------------------|----------------| |
| 
|
E|-------------------------|----------------| |
B|-------------------------|----------------| |
G|-(7)----------(7)--------|----------------| |
D|-------------------------|----------------| |
A|-------------------------|----------------| |
E|-------------------------|--x\------------| |


 Outro
E|----------------|-----------------|
B|----------------|-----------------|
G|-5-----------2--|-(2)------2------|
D|-5----5-(5)--2--|-(2)------2------|
A|-3----5-(5)--0--|-(0)--0-0----0-0-|
E|------3-(3)-----|-----------------|



E|---------------------------|---------------------------|
B|---------------------------|---------------------------|
G|--2------------------------|---------------------------|
D|--2---------2-(2)-----3----|-(3)-----------------------|
A|--0---------2-(2)-----3----|-(3)--3--3--3--3--3--3-----|
E|------------0-(0)-----1----|-(1)--1--1--1--1--1--1--0--|
|
|  
E|---------------------------|---------------------------|
B|---------------------------|---------------------------|
G|-14--14-14-14-14--14-14-14-|-14--14-14-14-14-14-14-14S=|
D|---------------------------|---------------------------|
A|-12--12-12-12-12--12-12-12-|-12--12-12-12-12-12-12-12S=|
E|---------------------------|---------------------------|

                              

E|--------------------|------------------------|
B|--------------------|------------------------|
G|--5--------------2--|--(2)--------2----------|
D|--5-----5--(5)---2--|--(2)--------2----------|
A|--3-----5--(5)---0--|--(0)----0-0-----0--0---|
E|--------3--(3)------|------------------------|
|
|  
E|--------------------|------------------------|
B|--------------------|------------------------|
G|-17----16-(16)--12--|-(12)-9------7-----(7)/-|
D|--------------------|------------------------|
A|-15----14-(14)--10--|-(10)-7------5-----(5)/-|
E|--------------------|------------------------|


E|----------------------------------------------------|
B|----------------------------------------------------|
G|--5-------------------------------------2-----------|
D|--5------------------5----(5)-----------2-----------|
A|--3------------------5----(5)-----------0-----------|
E|---------------------3----(3)-----------------------|
|
|  
E|----------------------------------------------------|
B|----------------------------------------------------|
G|--------14-17-------14-17--------14-17-------14-17--|
D|-14--17-------14-17-------14--17-------14-17--------|
A|----------------------------------------------------|
E|----------------------------------------------------|

              
E|--------------------------------------------------|
B|--------------------------------------------------|
G|-(2)-----------------------2----------------------|
D|-(2)-----------------------2----------------------|
A|-(0)-----------0-----0-----------------0-----0----|
E|--------------------------------------------------|
|
|  
E|--------17-20-------17-20-------17-20-------17-20-|
B|-17--20-------17-20-------17-20-------17-20-------|
G|--------------------------------------------------|
D|--------------------------------------------------|
A|--------------------------------------------------|
E|--------------------------------------------------|



E|----------------------------------|---------------------------|
B|----------------------------------|---------------------------|
G|--5---------------------------7---|--(7)----------------------|
D|--5-------5------(5)----------7---|--(7)----------------------|
A|--3-------5------(5)----------5---|--(5)----------------------|
E|----------3------(3)--------------|---------------------------|
|
|  
E|-20b22---20b22==(20)r(20)-17------|---------------------------|
B|----------------------------------|---------------------------|
G|-----------------------------19---|-(19)----------------------|
D|----------------------------------|---------------------------|
A|----------------------------------|---------------------------|
E|----------------------------------|---------------------------|
|
|
E|----------------------------------|---------------------------|
B|----------------------------------|---------------------------|
G|----------------------------------|---------------------------|
D|----------------------------------|---------------------5-----|
A|----------------------------------|---------5-----5h6h7---6h7-|
E|-----------------------------19\--|---0h6h7---6h7-------------|

  
E|--------------------------------|-----------------------------------|
B|--------------------------------|-----------------------------------|
G|--(7)---------------------------|--(7)------------------------------|
D|--(7)---------------------------|--(7)------------------------------|
A|--(5)---------------------------|--(5)------------------------------|
E|--------------------------------|-----------------------------------|
|
|   
E|--------------------------------|-----------------------------------|
B|--------------------------------|-----------------------------------|
G|-(19)---------------------------|-(19)------------------------(19)\-|
D|--------------------------------|-----------------------------------|
A|--------------------------------|-----------------------------------|
E|--------------------------------|-----------------------------------|
|
|
E|--------------------------------|-----------------------------------|
B|--------------------------------|-----------------------------------|
G|-----------------12s9s==7---(7)-|-------<4>--(<4>)---(<4>)----------|
D|---5h6h7-(7)-/14----------------|-----------------------------------|
A|--------------------------------|-----------------------------------|
E|--------------------------------|-----------------------------------|


E|--------------------------------------------|
B|--------------------------------------------|
G|--------------------------------------------|
D|--------------------------------------------|
A|--------0---0---0---0-0-(0)-0-0h==3p==0h3p0-|
E|--------------------------------------------|
|
|
E|--------------------------------------------|
B|--------------------------------------------|
G|-<4>--(<4>)---(<4>)-------------(<4>)-------|
D|--------------------------------------------|
A|--------------------------------------------|
E|--------------------------------------------|


E|-----------------------------------*|
B|-----------------------------------*|
G|--------------------------5--------*|
D|-----------------------------7p5---*|
A|-0---0---0---0-0-(0)0h5h7--------7-*|
E|-----------------------------------*|
|
| 
|
E|-----------------------------------*|
B|-----------------------------------*|
G|-0h2p0h2p0h2p0h2p=0h2p0h2p0--------*|
D|-----------------------------------*|
A|-----------------------------------*|
E|-----------------------------------*|
Otros videos de esta canción
    17 exhibiciones
      • ½ Tono
      • Am
      • Bbm
      • Bm
      • Cm
      • C#m
      • Dm
      • Ebm
      • Em
      • Fm
      • F#m
      • Gm
      • G#m
    • Agregar a la lista

    Afinação da cifra

    Afinador online

      Ops (: Contenido disponible solo en portugués.
      OK