Cifra Club

Gettin Better

Tesla

Cifrado: Principal (guitarra y guitarra eléctrica)
Selo Cifra Club: esta cifra foi revisada para atender aos critérios oficiais da nossa Equipe de Qualidade.
tono: G
 
Via: *; Tue, 20 Apr 93 14:55:55 BST
To: *


                         Gettin' Better


               from the album Mechanical Resonance.


        This is the main part of the intro, and is played three times. I have
 included some of the words for a bit of help. The three other bits of tab are
 what comes after the main part each time through - if you know what I mean!!
        I hope it's of use to somebody, but it really is very easy to play,
 especially if you have the song. But it's nice. The rest of the song is just
 straightforward chords and stuff. This is my first time entering tab and its
 just from memory but I reckon its not a bad effort - very time consuming
 though!! Any correspondence from other axemen (or women) would be good.
 My e-mail address is at the end. Fingerpick those strings and enjoy!

 Archie.
------------------------------------------------------------------------


1....no words first time through.............................

*' rain.........................outside my...........

* the sun will shine....................through my.....

e ---------------2h3p2--------||---------------------------||
B ---------3------------3-----||--------------2h3p2--------||
G ------2------------------2--||--------2------------2-----||
D ---0--------0---------------||-----2---------------------||
A ----------------------------||--0--------0------------0--||
E ----------------------------||---------------------------||

2...window.....................all in all I.........

3...window.....................when it's gonna...........

e --------------------------||-----------------0 (let -----||
B -----------3-----------2--||-----------------0  ring) ---||
G --------4-----------2-----||-----------------------------||
D -----4-----------2--------||--------2--------------------||
A --2-----------0-----------||-----2-----------------------||
E --------------------------||--4--------4--0--------------||

2..know...........It's gettin' better.........every.........

3..come............you know I really  couldn't.............
e --------------------------||-----------------------------||
B --------------0-----------||--------------2h3p2----------||  stick the
G -----------0-----0--------||--------2------------2-------||  next bit
D --------0-----------0-----||-----2-----------------------||   on here..
A -----2--------------------||--0--------0------------0----||
E --3--------------------3--||-----------------------------||


 ----------------------------------------
1st time through.

e ---------------2h3p2--------||---------------2h3p2-------||
B ---------3------------3-----||--3-------------------3----||
G ------2------------------2--||--2---------2------------2-||
D ---0--------0---------------||--0------0-----------------||
A ----------------------------||---------------------------||
E ----------------------------||---------------------------||


 -----------------------------------------
 2nd time through.

2......day............
e ---------------2h3p2--------||---------------------------||
B ---------3------------3-----||-----------2-----------2---||
G ------2------------------2--||--------2-----------2------||
D ---0--------0---------------||-----2-----------2---------||
A ----------------------------||--0-----------4------------||
E ----------------------------||---------------------------||

 --------------------------------------------
 3rd time through.

3.....say.....................................but I know....

e --------------------------||--------------------------||
B --------------3-----------||--------------3-----------||
G --------4--------4--------||--------4--------4--------||
D -----0--------------0-----||-----0--------------0-----||
A --2--------2-----------2--||--0--------0-----------0--||
E --------------------------||--------------------------||


3...................It's gettin' better......every..........

e --------------------------||-----------------------------||
B --------------0-----------||--------------2h3p2----------||
G -----------0-----0--------||--------2------------2-------||
D --------0-----------0-----||-----2-----------------------||
A -----2--------------------||--0--------0------------0----||
E --3--------------------3--||-----------------------------||


3.....day................

e ---------------2h3p2--------||----2-----------------------||
B ---------3------------3-----||----3-----------------------||
G ------2------------------2--||----2-----------------------||
D ---0--------0---------------||----0-----------------------||
A ----------------------------||----------------------------||
E ----------------------------||----------------------------||



 My internet address is *

------------------------------------------------------------------------
Otros videos de esta canción
    97 exhibiciones
      • ½ Tono
      • A
      • Bb
      • B
      • C
      • Db
      • D
      • Eb
      • E
      • F
      • F#
      • G
      • Ab
    • Agregar a la lista

    Afinação da cifra

    Afinador online

      Ops (: Contenido disponible solo en portugués.
      OK