Cifra Club

Into The Now

Tesla

Cifrado: Principal (guitarra y guitarra eléctrica)
Selo Cifra Club: esta cifra foi revisada para atender aos critérios oficiais da nossa Equipe de Qualidade.
tono: Bm
Intro:
E|-------------------------------------------------------------|
B|-------------------------------------------------------------|
G|---9-9-| 9 9 9 9- 99---------5-5---5-5-5-5---55---------------|
D|---9-9-| 9 9 9 9- 99---------5-5---5-5-5-5---55---------------|    x4
A|---7-7-| 7 7 7 7- 77---------3-3---3-3-3-3---33---------------|
E|-------------------------------------------------------------|


Main Riff:
E|------------------------------------------------------|
B|------------------------------------------------------|
G|------------------------------------------------------|
D|------------------------------------------------------| x4
A|2-2--4-----5-----7--222--4-----5-----8--7--5----------|
0-0--2--0--3--0--5--000--2--0--3--0--6--5--3----------|

Frankie does this i think during the main riff:
E|------------------------------------------------------|
B|------------------------------------------------------|
G|-----7b--7--7b--7--5b--5--5b--3-----------------------|
D|--------------------------------5---------------------|
A|------------------------------------------------------|
E|------------------------------------------------------|
             bend these half way

Verse: Same as the main riff.

Chorus: Guitar One
E|------------------------------------------------------|
B|------------------------------------------------------|
G|------------------------------------------------------|
D|------------------------------------------------------|
A|-7-9-10-7-9-10-7-9-10-7-9-10-7-9-10-9-----------------|
E|------------------------------------------------------|
Play this the whole chorus.

Chorus: Guitar Two
E|------------------------------------------------------|
B|------------------------------------------------------|
G|-9-9-9-9-9-9-9-9---5-5-5-5-5-5-5-5--------------------|
D|-9-9-9-9-9-9-9-9---5-5-5-5-5-5-5-5--------------------|
A|-7-7-7-7-7-7-7-7---3-3-3-3-3-3-3-3--------------------|
E|------------------------------------------------------|
                                                       x2
E|------------------------------------------------------|
B|------------------------------------------------------|
G|-------------------7-7-7-7-7-7-7-7--------------------|
D|-7-7-7-7-7-7-7-7---7-7-7-7-7-7-7-7--------------------|
A|-7-7-7-7-7-7-7-7---5-5-5-5-5-5-5-5--------------------|
E|-5-5-5-5-5-5-5-5--------------------------------------|

After this, play the main riff twice.

Verse: Same as main riff.

Chorus:

Bridge: First, slide you finger up and down the strings by the pickups.
Then, play this along with the piano.
E|------------------------------------------------------|
B|------------------------------------------------------|
G|------------------------------------------------------|
D|-2-----4-----2-----4---------2-----4-----5-----7------|
A|-2-----4-----2-----4--x2-----2-----4-----5-----7------|
E|-0-----2-----0-----2---------0-----2-----3-----5------|
Otros videos de esta canción
    6 exhibiciones
      • ½ Tono
      • Am
      • Bbm
      • Bm
      • Cm
      • C#m
      • Dm
      • Ebm
      • Em
      • Fm
      • F#m
      • Gm
      • G#m
    • Agregar a la lista

    Afinação da cifra

    Afinador online

      Ops (: Contenido disponible solo en portugués.
      OK