Cifra Club

Little Suzi Intro

Tesla

Cifrado: Principal (guitarra y guitarra eléctrica)
Selo Cifra Club: esta cifra foi revisada para atender aos critérios oficiais da nossa Equipe de Qualidade.
tono: A
- Drop low E string to D
- / marks indicate phrases, not slides, etc.
- Tildes ( ~ ) indicate slides
- * indicates a slide, but second note is still plucked


E---------------------------------/-------------------------------/---------|
B-----------------3-------------------------------3-------3-----------------|
G---0^2-----0-----2-----------------0^2-----0-----2-------2-----------------|
D--------4-----------2^4-----------------4-----------2^4--------------------|
A---5----------------5----5-----5---5----------------5----------5-----------|
(D)------------0-------------0----/------------0-------------0----/---------|

E---------------------------------/-----------------------------------------|
B-----------------3-----------------0----------2----------3----------3------|
G---0^2-----0-----2--------------------0----------2----------2-------2------|
D--------4-----------2^4------------------0^2--------2^4--------2^4---------|
A---5----------------5----5-----5--------------0---------------------5------|
D--------------0-------------0----/-5---------------------0-----------------|


- Second time repeats until 4th phrase:


E---------------------------------------------------0--------0--------0-----|
B--0----------2----------320--320--32--320--320--5-----0--------0--------0--|
G-----0----------2----------------------------------------1--------1--------|
D--------0^2--------2^4-----------------------------------------------------|
A-------------0----------2---------2---0------------------------------------|
D--5------------------------------------------------------------------------|

E---------------------------------------------------------------------------|
B--3--------2--------0--------2--------3--------2----3*5--------------------|
G-----0--------0--------0--------0--------0-----0----4*6--------------------|
D--------2--------2--------2--------2--------2--2---------------------------|
A---------------------------------------------------------------------------|
D---------------------------------------------------------------------------|


- Back to beginning, repeat

- The lead part which is played during this repeat will come soon, still have a little 
to do on that one though
Otros videos de esta canción
    34 exhibiciones
      • ½ Tono
      • A
      • Bb
      • B
      • C
      • Db
      • D
      • Eb
      • E
      • F
      • F#
      • G
      • Ab
    • Agregar a la lista

    Afinação da cifra

    Afinador online

      Ops (: Contenido disponible solo en portugués.
      OK