Cifra Club

Little Suzi

Tesla

Cifrado: Principal (guitarra y guitarra eléctrica)
Selo Cifra Club: esta cifra foi revisada para atender aos critérios oficiais da nossa Equipe de Qualidade.
tono: A
 
To: *




                     from the album Mechanical Resonance


 This is as close as I can get, but I really haven't got a clue how it
 should be played, so I guess you could call it my own arrangement! The
 only bit which I'm not happy with is the base note D , which goes on
 throughout the intro. I'm not really proficient enough to pick it properly,
 but if you know the song then you'll know what I'm talking about. If
 anyone wants the main chords to the song, or the solo, I'll see what I
 can do.
        Anyway, hope someone enjoys it, and I hope I can do some more before
 I graduate and don't have access to the internet for a while. Cheers!

 Archie.
_____________________________________________________________________________

PART 1
------

E---------------------------|---------------------------|
B---------------------------|------------------------3--|
G---0h2------0---2----------|---0h2------0---2-------2--|
D---------4---------2h4-----|---------4---------2h4-----|
A---5----------5---------5--|---5----------5------------|
E---------------------------|---------------------------|

E---------------------------|---------------------------------|
B---------------------------|--0--------2--------3----------3-|
G---0h2------0---2----------|-----0--------2--------2---------|
D---------4---------2h4-----|--------0--------2--------2h4----|
A---5----------5---------5--|---------------------------------|
E---------------------------|---------------------------------|


PART 2
------

E---------------------------|---------------------------|
B---------------------------|------------------------3--|
G---0h2------0---2----------|---0h2------0---2-------2--|
D---------4---------2h4-----|---------4---------2h4-----|
A---5----------5---------5--|---5----------5------------|
E---------------------------|---------------------------|

E---------------------------|-----------------------------------------|
B---------------------------|--0--------2--------320-320-320-320-320--|
G---0h2------0---2----------|-----0--------2--------------------------|
D---------4---------2h4-----|--------0--------2-----------------------|
A---5----------5---------5--|-----------------------------------------|
E---------------------------|-----------------------------------------|

E--0--------0--------0------|-----------------------------------------------|
B-----0--------0--------0---|--3--------2--------0--------2--------3--------|
G--------1--------1---------|-----0--------0--------0--------0--------0-----|
D---------------------------|--------2--------2--------2--------2--------2--|
A---------------------------|-----------------------------------------------|
E---------------------------|-----------------------------------------------|

E-----------------~-----------|
B--3---------2----~---3----5--|
G-----0------0----~---4----6--|  repeat PART 1
D--------2---2----~-----------|
A-----------------~-----------|  the ~ is supposed to mean 'rest'.
E-----------------~-----------|


|================================================|
| University of Dundee                           |
| Department of Mathematics and Computer Science |
| e-mail: *              |
|================================================|
Otros videos de esta canción
    97 exhibiciones
      • ½ Tono
      • A
      • Bb
      • B
      • C
      • Db
      • D
      • Eb
      • E
      • F
      • F#
      • G
      • Ab
    • Agregar a la lista

    Afinação da cifra

    Afinador online

      Ops (: Contenido disponible solo en portugués.
      OK