Cifra Club

Love Song

Tesla

Cifrado: Principal (guitarra y guitarra eléctrica)
Selo Cifra Club: esta cifra foi revisada para atender aos critérios oficiais da nossa Equipe de Qualidade.
tono: G
SECTION I
|-3-3p2p0----------14-14-14p12p10--|-2--3--3p2p0-----------------------|
|----------7s2-2-2-----------------|--------------2--3--5--3--3--0-2-3-|repeat
|----------------------------------|-------------------------4-4-------|this
|-0--------------------------------|-0----------------------4----------| <--
|----------------------------------|--------------0--------2-----------|
|----------------------------------|-----------------------------3-----|
  D                                  D            A        Bmin  G

TURNAROUND
|-2--3--3p2p0---------------0------------------------2------------------|
|--------------2--3--5--3-2---3-----3-----2-----2----3-------0-2-3---2-3|
|-------------------------------0-----0---2-2-----2--2-2-4-2-------2----|
|-0-------------------------------0-------2---2------0-4-5-4------------|
|--------------0--------2-0---------------0-----------------------------|
|---------------------------4-3-----------------------------------------|

|--------------|        THIS FILL ----> |--14-12-10---------------------|
|---2-3-3s5-3-2|        GOES WITH THE   |-----------14-12-10------------|
|-0------------|         TURNAROUND     |--------------------12-10-9----|
|--------------|           ABOVE        |----------------------------12-|
|--------------|                        |-------------------------------|
|--------------|                        |-------------------------------|

Fill--> E|--------------------------------------------------------------|
        B|--------------------------------------------------------------|
        G|-4p2p0--4p2p0--4p2p0--4p2p0-4p2p0------------4p2p0------------|
        D|---------------------------------4p2p0------------4p2p0-------|
        A|---------------------------------------4p2p0-----------4p2p0--|
        E|--------------------------------------------------------------|

Different ending
starting with G Chord
   |---------2--3-5-|
   |-0-2-3---3--5-7-|  Then it goes to the main part of the song.
   |---------2--4-7-|    Which is described below.
   |---------0------|
   |----------------|
   |-3--------------|
SECTION II
E|--------------7-7-7-5-3-5---7-7-7-5-3-2---7-7-7-5-3-5---7-7-7-5-3-|
B|--------------8-8-8-7-5-7---8-8-8-7-5-3---8-8-8-7-5-7---8-8-8-7-5-|
G|------------------------------------------------------------------|
D|--0-0-0-0-0-0-----------------------------------------------------|
A|------------------------------------------------------------------|
E|------------------------------------------------------------------|

Now there is just mostly chords when he starts singing and just pick through
the chords. I'll give any fills I can remember.

 SECTION III
 So you think that it's over,  Say you love has finally reached the end
 Emin                   Bmin   Emin                      Bmin        A
 Any time you call night or day I'll be there for you If you need A friend
 Amin                       G                     Bmin                D
(Cool Fill here)
 Its gonna take a little time etc.
 (same chords here as above with intro riff at the end)
 Here is the cool fill
 E|-2P3P2--------------|
 B|-------3P5P3--------|
 G|-------------2P4P2--|--> OR SOMETHING LIKE THAT
 D|--------------------|
 A|--------------------|
 E|--------------------|
     D

SECTION IV
 Love is all around you, Love is knockin' outside your door
 G    D  G   G        D   G     D         G               D
 Waiting for you is this love made just for two
 Emin                    C
 Keep an open heart and you'll find love again I know.(repeat this again)
  D      Dsus2    D    Dsus2      D    Dsus2
 SECTION V(SOLO) b=full bend(bb=1 1/2bend)(h=hammer on)(p=pull off)/=slide
                 bu=bend up and back down(bd=already bent as you strike)
E|-------------------------------12------------------------------------|
B|-b15\--b15-b15-12h15p12-----12----15-12------------------------------|
G|-------------------------b14------------14-b14-12--------------------|
D|--------------------------------------------------14------5-b7-7-5-7-|
A|-------------------------------------------------------/7------------|
E|---------------------------------------------------------------------|

E|-----------------------------------------------15--------------------|
B|-------------------13--12-------------------------15-----------------|
G|------------5-4-----------14--14P16P14-12--B14-------bd14p12----12---|
D|-7/9-7P9-7------7--------------------------------------------14------|
A|---------------------------------------------------------------------|
E|---------------------------------------------------------------------|

E|---------------------------------------------------------------------|
B|----------------------------------7-9-7------b15--b15-b15-12-15-12---|
G|12-12-12\11-11-11-11\9-9-9-9\7-7h9-----------------------------------|
D|---------------------------------------------------------------------|
A|---------------------------------------------------------------------|
E|---------------------------------------------------------------------|

E|-------12-------------------------b17-17p15-b17-17p15-17-------------|
B|----12----15-12---------------b15--------------------------13-12-----|
G|b14-------------14-b14-12----------------------------------------14--|
D|--------------------------14-----------------------------------------|
A|---------------------------------------------------------------------|
E|---------------------------------------------------------------------|

E|-------------------------------------15------------------------------|
B|13-12----13-12--------------------------15---------------------------|
G|------14-------14--14p16p14--12---b14------14-14p12----12--12-12-----|
D|----------------------------------------------------14---------------|
A|---------------------------------------------------------------------|
E|---------------------------------------------------------------------|

E|--------------------------------------------------------------10-----|
B|-----------------------------7p9-7------------------7------10----b13-|
G|12\11-11-11-11\9-9-9-9\7-7p9--------------------7h9----/11-----------|
D|-------------------------------------5-bu7-5-7/9---------------------|
A|---------------------------------------------------------------------|
E|---------------------------------------------------------------------|

E|-20-20-20-b20-b20-b20------------------------------------------------|
B|---------------------------------------------------------------------|
G|---------------------------------------------------------------------|
D|---------------------------------------------------------------------|
A|---------------------------------------------------------------------|
E|---------------------------------------------------------------------|

 SECTION VI
 Love is on the way keep and open heart open up your eyes
  G              D                 Emin    D  C
 Love will find a way darlin' love is gonna find a way find its way back
  G        D                   Emin                      D  C
 to you.(etc. repeat to end)
       The absolute ending is like this.
 I know         do, do ,do, do-do-do
   G    D      G               D    (Repeat a few times Song ends On G I
think)
Well that should be the whole song.
Otros videos de esta canción
    12.747 exhibiciones
      • ½ Tono
      • A
      • Bb
      • B
      • C
      • Db
      • D
      • Eb
      • E
      • F
      • F#
      • G
      • Ab
    • Agregar a la lista

    Afinação da cifra

    Afinador online

      Ops (: Contenido disponible solo en portugués.
      OK