Cifra Club

Rock Me To The Top

Tesla

Cifrado: Principal (guitarra y guitarra eléctrica)
Selo Cifra Club: esta cifra foi revisada para atender aos critérios oficiais da nossa Equipe de Qualidade.
tono: Em
Intro: 0:00 - 0:27

E|----------------------------------------------------------------|
B|----------------------------------------------------------------|
G|----------------------------------------------------------------|
D|-------4--5----4--2-----------------4--5----4--2----5-4-2-------| (x2)
A|--2----2--3----2--0----5---7---2----2--3----2--0----3-2-0-5b--2-|
E|--0--------------------3---5---0--------------------------3b--0-|


1st Verse: 0:28 - 0:55

E|-------------------------------------------------------------------|
B|-------------------------------------------------------------------|
G|--------------------------------------------------------7-----7----|
D|------------4--5-------------4--2-----------------------5-----5-2--|
A|------------2--3---3-3-3-3---2--0---0-0-0-0-0-0-0-5-5-----0-0---0--|
E|--0-0-0-0----------------------------------------------------------|
   * * * *          * * * *          * * * * * * * * *     * *

E|-------------------------------------------------------------------|
B|-------------------------------------------------------------------|
G|--------------------------------------------------------7-----7----|
D|------------4--5-------------4--2-----------------------5-----5-5--|
A|------------2--3---3-3-3-3---2--0---0-0-0-0-0-0-0-5-5-----0-0---3--|
E|--0-0-0-0----------------------------------------------------------|
   * * * *          * * * *          * * * * * * * * *     * *

E|-----------------------------------------------------------------------|
B|-----------------------------------------------------------------------|
G|-----------------------------------------------------------------------|
D|------------4--2-----------------------9~~~---------------5------------|
A|--3-3-3-3---2--0---0-0-0-0---5b--2---9-----2---9--7-9/5---3---3-3-3-3--|
E|-----------------------------3b--0---------0---------------------------|
   * * * *          * * * *                                    * * * *

E|------------------------------------------|
B|------------------------------------------|
G|------------------------------------------|
D|--4--2-------------------4--7--2--2-------|
A|--2--0---0-0-0-0-0-0-0---2--5--0--0-------|
E|------------------------------------0-3b--|
          * * * *


Chorus: 0:56 - 1:10

E|----------------------------------------------------------------|
B|----------------------------------------------------------------|
G|----------------------------------------------------------------|
D|-------4--5----4--2-----------------4--5----4--2----5-4-2-------|
A|--2----2--3----2--0----5---7---2----2--3----2--0----3-2-0-5b--2-|
E|--0--------------------3---5---0--------------------------3b--0-|


2st Verse: 1:11 - 1:37 (Identical to 1st Verse)

E|-------------------------------------------------------------------|
B|-------------------------------------------------------------------|
G|--------------------------------------------------------7-----7----|
D|------------4--5-------------4--2-----------------------5-----5-2--|
A|------------2--3---3-3-3-3---2--0---0-0-0-0-0-0-0-5-5-----0-0---0--|
E|--0-0-0-0----------------------------------------------------------|
   * * * *          * * * *          * * * * * * * * *     * *

E|-------------------------------------------------------------------|
B|-------------------------------------------------------------------|
G|--------------------------------------------------------7-----7----|
D|------------4--5-------------4--2-----------------------5-----5-5--|
A|------------2--3---3-3-3-3---2--0---0-0-0-0-0-0-0-5-5-----0-0---3--|
E|--0-0-0-0----------------------------------------------------------|
   * * * *          * * * *          * * * * * * * * *     * *

E|-----------------------------------------------------------------------|
B|-----------------------------------------------------------------------|
G|-----------------------------------------------------------------------|
D|------------4--2-----------------------9~~~---------------5------------|
A|--3-3-3-3---2--0---0-0-0-0---5b--2---9-----2---9--7-9/5---3---3-3-3-3--|
E|-----------------------------3b--0---------0---------------------------|
   * * * *          * * * *                                    * * * *

E|------------------------------------------|
B|------------------------------------------|
G|------------------------------------------|
D|--4--2-------------------4--7--2--2-------|
A|--2--0---0-0-0-0-0-0-0---2--5--0--0-------|
E|------------------------------------0-3b--|
          * * * *


Chorus: 1:38 - 1:51

E|--------------------------------------------------------------|
B|--------------------------------------------------------------|
G|--------------------------------------------------------------|
D|-------4--5----4--2-----------------4--5----4--2----5-4-2-----|
A|--2----2--3----2--0----5---7---2----2--3----2--0----3-2-0-5b--|
E|--0--------------------3---5---0--------------------------3b--|


Bridge: 1:52 - 2:06

E|----------------------------------------------|
B|----------------------------------------------|
G|--4----------5--7----------7--5---------4-----|
D|--2---2-2-2--3--5---2-2-2--5--3--2-2-2--2--2--|
A|------0-0-0---------0-0-0--------0-0-0-----0--|
E|----------------------------------------------|

E|--------------------------------------------------|
B|--------------------------------------------------|
G|--4----------5--7----------7--5---------4---------|
D|--2---2-2-2--3--5---2-2-2--5--3--2-2-2--2--5-4-2--|
A|------0-0-0---------0-0-0--------0-0-0-----3-2-0--|
E|--------------------------------------------------|


The solo comes in here. But, I don't know it. So, here's the rhythm guitar that backs it up.


Rhythm behind solo: 2:07 - 2:33

E|-------------------------------------------|
B|-------------------------------------------|
G|-------------------------------------------|
D|-------------------------------------------| (x4)
A|--2--2-----5-7---2----5-7---2----5-7----5--|
E|--0--0-----3-5---0----3-5---0----3-5----3--|


Chorus: 2:34 - 3:12

E|--------------------------------------------------------------|
B|--------------------------------------------------------------|
G|--------------------------------------------------------------|
D|-------4--5----4--2-----------------4--5----4--2----5-4-2-----| (x1)
A|--2----2--3----2--0----5---7---2----2--3----2--0----3-2-0-5b--|
E|--0--------------------3---5---0--------------------------3b--|

E|------------------------------|
B|------------------------------|
G|------------------------------|
D|-------4--5----4--2-----------| (x3)
A|--2----2--3----2--0----5---7--|
E|--0--------------------3---5--|


Outro: 3:13 - 3:24

E|--------------------------------------------------------------------------|
B|--------------------------------------------------------------------------|
G|-------------------------5--4--2------------------------------------------|
D|-------4--5----4--2------3--2--0---4---5---4---2--------------------------|
A|--2----2--3----2--0----------------2---3---2---0---5----2----5---7---9----|
E|--0------------------------------------------------3----0----3---5---7----|
Otros videos de esta canción
    6 exhibiciones
      • ½ Tono
      • Am
      • Bbm
      • Bm
      • Cm
      • C#m
      • Dm
      • Ebm
      • Em
      • Fm
      • F#m
      • Gm
      • G#m
    • Agregar a la lista

    Afinação da cifra

    Afinador online

      Ops (: Contenido disponible solo en portugués.
      OK