Cifra Club

So Divine

Tesla

Cifrado: Principal (guitarra y guitarra eléctrica)
Selo Cifra Club: esta cifra foi revisada para atender aos critérios oficiais da nossa Equipe de Qualidade.
tono: D
E|E|-------------------------------------------------------------------------------||
                             SO DIVINE (Solo) - Tesla
E|E|-------------------------------------------------------------------------------||
Tabbed by: Guytarist38
E-mail: guybr@hotmail.fr

Tuning: Standart

Legend
L - tied note
x - dead note
h - hammer on/pull off
b - bend
s - slide
~ - vibrato
g - ghost note
> - accentuated note
t - trill
M - palm mute
. - staccato
P - popping (bass)
S - slapping (bass)
+ - tapping
W - wide vibrato
< - fade in
w - whammy bar
= - tremolo picking
v - brush up
^ - brush down
V - pick stroke up
n - pick stroke down

E|--------------------14-16---|--16b15b16-14-16----14------|
B|--17b19----17b19------------|-----------------14----17---|
G|----------------------------|----------------------------|
D|----------------------------|----------------------------|
A|----------------------------|----------------------------|
E|----------------------------|----------------------------|


E|--------------------------|------------------------------|
B|--17b19----17b19----14-15-|-17-15-14--15--14| L------------|
G|--------------------------|---------------------16--14---|
D|--------------------------|------------------------------|
A|--------------------------|------------------------------|
E|--------------------------|------------------------------|


E|--------------------------|------------------------------|
B|--14-15-14----------------|--14-15-14-------------14| L----|
G|-----------16--14---------|-----------16--14------16b18| L-|
D|--------------------------|------------------------------|
A|--------------------------|------------------------------|
E|--------------------------|------------------------------|


E|--------------------------|------------------------------|
B|-(14)----12| L-------10L----|-(10)---9L--------------------|
G|-(18)----14b16| L----12b14--|-(14)---11b12L----------------|
D|--------------------------|------------------------------|
A|--------------------------|------------------------------|
E|--------------------------|------------------------------|


E|----------------------------------------------------|
B|----------------------------------------------------|
G|--------------------4--------4--6-----4--6--7--4----|
D|--4--6--7--4--6--7-----6--7--------7----------------|
A|----------------------------------------------------|
E|----------------------------------------------------|


E|----------------------------------------------------|
B|--------------------7--------7--9-----7--9--10------|
G|--6--7--9--6--7--9-----7--9--------9-----------11---|
D|----------------------------------------------------|
A|----------------------------------------------------|
E|----------------------------------------------------|

        
E|-----------------------------9-9-10-9-10-12-9-10| L---|
B|--9-10-12-9-9-10-12-10-12-12------------------------|
G|----------------------------------------------------|
D|----------------------------------------------------|
A|----------------------------------------------------|
E|----------------------------------------------------|



E|--10-12-14-10-12-14-15-12-14-15-17-14-15-17-19-15-17-19-17-19-17-19--|
B|---------------------------------------------------------------------|
G|---------------------------------------------------------------------|
D|---------------------------------------------------------------------|
A|---------------------------------------------------------------------|
E|---------------------------------------------------------------------|



E|--19b21---19b21rb19---17-----------19b21| L-|-(21)---17----17-19-17-19-|
B|------------------------19-----17---------|-----------19-------------|
G|------------------------------------------|--------------------------|
D|------------------------------------------|--------------------------|
A|------------------------------------------|--------------------------|
E|------------------------------------------|--------------------------|


E|--19b21---19b21---|----------------------------| |
B|------------------|----------------------------| |
G|------------------|--4b6-4--2--4-----2---------| |
D|------------------|----------------------------| |
A|------------------|----------------------------| |
E|------------------|----------------------------| |
Otros videos de esta canción
    8 exhibiciones
      • ½ Tono
      • A
      • Bb
      • B
      • C
      • Db
      • D
      • Eb
      • E
      • F
      • F#
      • G
      • Ab
    • Agregar a la lista

    Afinação da cifra

    Afinador online

      Ops (: Contenido disponible solo en portugués.
      OK