Cifra Club

A Promessa Divina Do Paraíso

Testemunhas de Jeová

Cifrado: Principal (guitarra y guitarra eléctrica)
tono: Am
Deus pro-me-teu   um pa-ra-í-so,  mil a-nos
E|---------------------------------------------------
B|---------------------------------------------------
G|---0--------------------5----4--2~---2-------------
D|--------2--3---5~----5-----6------------0--2-------
A|---------------------------------------------------
E|---------------------------------------------------

Cris - to vai rei-nar    A dor, a mor-te e o
E|---------------------------------------------------
B|-------------------------------------------3-------
G|------------4---2----0-----0-----------------5-----
D|---3~----0--------------------2---3--5~-5----------
A|---------------------------------------------------
E|---------------------------------------------------

pran-to    são coi-sas que    i-rão pas-sar
E|---------------------------------------------------
B|---------------------------------------------------
G|---4---2------2---4---5---0------------------------
D|--------------------------------0--3---2-----------
A|-------------------------------------------3-------
E|---------------------------------------------------

A Ter-ra, sim,  um be-lo lar,   en-tão por fim,
E|---------------------------------------------------
B|--------------------3------------------------------
G|-------0----2~---4-----5---0---------4---2---------
D|-2--3----------------------------2-----------3~----
A|---------------------------------------------------
E|---------------------------------------------------

vai se tor-nar    Po-de-mos crer    Deus é
E|---------------------------------------------------
B|-----------------------------------------3---------
G|----2-------------------0----2~------4-------------
D|-0------5---2-----2--3-----------------------------
A|---------------------------------------------------
E|---------------------------------------------------

ve-raz    Je-sus tra-rá    su-bli-me   paz.
E|---------------------------------------------------
B|------------------------------3--------------------
G|--5---0---------4---2------------5--4-----5~-------
D|------------2-----------3--------------------------
A|---------------------------------------------------
E|---------------------------------------------------
00:00 / 00:00
Otros videos de esta canción
Repetir
Otros videos de esta canción
Composición de Testemunhas De Jeová
Colaboración y revisión:
  • Bruno Zagheti
190 vistas
    • ½ Tono
    • Am
    • Bbm
    • Bm
    • Cm
    • C#m
    • Dm
    • Ebm
    • Em
    • Fm
    • F#m
    • Gm
    • G#m
  • Agregar a la lista

    0 comentarios

    Ver todos los comentarios

    ¿Lograste tocar?

    4 Tocaron 0 Aún no

    ¡Graba un video tocando A Promessa Divina Do Paraíso y envíanoslo!

    00:00 / 00:00
    OK