Cifra Club

Imagine a Si Mesmo No Paraíso

Testemunhas de Jeová

Cifrado: Principal (guitarra y guitarra eléctrica)
tono: Fm (con acordes en la forma de Dm) Capotraste en 3ª casa
E|----------------------------------------------------------|
B|----------------------------------------------------------|
G|----------------------------------------------------------|
D|-----------------0------------3-2-3---2-0-2-------0-------|
A|----1-0-0-3----1---3-3-3----3-------0-------0-3-0-----1---|
E|--3---------1------------1--------------------------1-----|

E|----------------------------------------------------------|
B|----------------------------------------------------------|
G|----------------------------------0-----------------------|
D|--0-2-3---0------------0--------2----3-2-2----3---0-3-----|
A|--------1------1-0---0------0-4-------------2---3------3--|
E|------------3------3-----3---------------------------3----|

E|------------------------------------------------------------|
B|------------------------------------------------------------|
G|------------------------------------------0-----------------|
D|-----------------0------------3-2-3---2-3-----2-2-0---------|
A|----1-0-0-3----1---3-3-3----3-------0-------0---------1---1-|
E|--3---------1------------1--------------------------1---1---|

E|-------------------------------------------------------------------------------|
B|-------------------------------------------------------------------------------|
G|---------------------------------------------------2-2---0---------------------|
D|--0--0----0-2--0-2-3--2----------3---2-3-3---2-3-3-----3-0-0---0-------0-0---0-|
A|-----1--3-1-3----3-3--0-3-0--3-0-0-0-----0-0-----1---3---3---3---1-3-3---------|
E|--------------------------1------------------------------------------------3---|

E|----------------------------------------------------------------------|
B|----------------------------------------------------------------------|
G|--0-3--2-0-2---0----0-------------------------------------------------|
D|----3------3------------3-2-3---0-0---0-2-3-3---2-3-3---0-------------|
A|-----------3-3---3--3-3-----0-0-----3-------0-------3-3---2-3-0---0-3-|
E|----------------------------------------------1-------------3---1-----|

E|-------------------------------------------------------------------------------|
B|-------------------------------2-----------------------------------------------|
G|---------------------3--2-0-2----0------------0-2-2-----3-0--------------------|
D|-------------0-0-2-3-0------0------3--2-3--3------3-------0-----3-3---------3--|
A|--3--3-1-1-3-1--------------0------0-------1------1-------1---3---3--3---3--3--|
E|--1--1-------3---------------------------------------3------------1--1---1--1--|

00:00 / 00:00
Otros videos de esta canción
Repetir
Otros videos de esta canción
Composición de Testemunhas de Jeová
Colaboración y revisión:
  • Gaspar
267 vistas
    • ½ Tono
    • Am
    • Bbm
    • Bm
    • Cm
    • C#m
    • Dm
    • Ebm
    • Em
    • Fm
    • F#m
    • Gm
    • G#m
  • Agregar a la lista

    0 comentarios

    Ver todos los comentarios

    ¿Lograste tocar?

    1 Tocaron 0 Aún no

    ¡Graba un video tocando Imagine a Si Mesmo No Paraíso y envíanoslo!

    00:00 / 00:00
    OK