Cifra Club

I Don T Want A Lover

Texas

Cifrado: Principal (guitarra y guitarra eléctrica)
Selo Cifra Club: esta cifra foi revisada para atender aos critérios oficiais da nossa Equipe de Qualidade.
tono: C
 


From:Kalbfleisch 6 04

 NOTATION : / Slide with Bottleneck and pick the string
            (-)slide with Bottleneck and dont pick the string 
      
 
  Intro:                    

 |-------------------10------------------------------------------|
 |--------------8-/-----10----------------------------5-/--------|
 |-------------------------------------5-(7)--------------7------|
 |---------------------------------------------------------------|
 |---------------------------------------------------------------|
 |---------------------------------------------------------------|
 
 
 |-----------------------------10--------------------------------|
 |------5-/--------------8-/-------------------------------------|
 |----------7----------------------------------------------------|
 |---------------------------------------------------------------|
 |---------------------------------------------------------------|
 |---------------------------------------------------------------|
 
 

 Verse:

  I dont want a lover                     (play Twise)             
 
 |---------------------------10-/--------------------------------|
 |-----------------------8-/------8------------------------------|
 |---------------------------------------------------------------|
 |---------------------------------------------------------------|
 |---------------------------------------------------------------|
 |---------------------------------------------------------------|

  even when it cute so deep
 
     C          Em        D                 (PLay twise)
 |--------------------------2-2-2---------------------------------|
 |----1-1-1-------0-0-0-----3-3-3---------------------------------|
 |----0-0-0-------0-0-0-----2-2-2---------------------------------|
 |----2-2-2-------2-2-2-----0-0-0---------------------------------|
 |----3-3-3-------2-2-2-------------------------------------------|
 |----------------0-0-0-------------------------------------------|



 Chorus:

 |-----------------------------------------------------------------|
 |-----5--(9)----------5--(7)--------------8--(12)-----------------|
 |-----------------------------------------------------------------| 
 |-----------------------------------------------------------------|
 |-----------------------------------------------------------------|
 |-----------------------------------------------------------------|


  2. guitar in background
   
 |----x-----------------------------------------------------------|
 |----x-----------------------------------------------------------|
 |----19-----------------------------------------------------------|
 |----19-----------------------------------------------------------|
 |----17-----------------------------------------------------------|
 |----x----------------------------------------------------------|
    |    |
     death note








       C          Em        D                 (PLay twise)
 |--------------------------2-2-2-----------------------------------|
 |----1-1-1-------0-0-0-----3-3-3-----------------------------------|
 |----0-0-0-------0-0-0-----2-2-2-----------------------------------|
 |----2-2-2-------2-2-2-----0-0-0-----------------------------------|
 |----3-3-3-------2-2-2---------------------------------------------|
 |----------------0-0-0---------------------------------------------|


 
 |------------------------------------------------------------------|
 |-----5--(9)-----------5--(7)-------------8--(12)------------------|
 |------------------------------------------------------------------| 
 |------------------------------------------------------------------|
 |------------------------------------------------------------------|
 |------------------------------------------------------------------|


 



 Bridge:         G

 |---xxxx-3---3-xxxx-3-xxxx-3-xxxx--3---------------------------------|
 |---xxxx-3---3-xxxx-3-xxxx-3-xxxx--3---------------------------------|
 |---xxxx-o---x-xxxx-x-xxxx-x-xxxx--0---------------------------------|
 |---xxxx-0---x-xxxx-x-xxxx-x-xxxx--0---------------------------------|
 |---xxxx-3---2-xxxx-2-xxxx-2-xxxx--2---------------------------------|
 |---xxxx-2-----xxxx---xxxx---xxxx--3---------------------------------|



   |  2x   |       1x
 |------------------------------------------------------------------|
 |---5-(7)--7-(9)--9-(5)--5-(7)-------------------------------------|
 |---5-(7)--7-(9)--9-(5)--5-(7)-------------------------------------|
 |---5-(7)--7-(9)--9-(5)--5-(7)-------------------------------------|
 |------------------------------------------------------------------|
 |------------------------------------------------------------------|








 |---8-(10)----------------------------------------------------------|
 |---------------5-(7)-----------------------------------------------|
 |-------------------------------------------------------------------|
 |-------------------------------------------------------------------|
 |-------------------------------------------------------------------|
 |-------------------------------------------------------------------|


 outro:

 |------------------------------------------------------------------|
 |---5--(9)------------5--(7)--------------8--(12)------------------|
 |------------------------------------------------------------------| 
 |------------------------------------------------------------------|
 |------------------------------------------------------------------|
 |------------------------------------------------------------------|



  its my first tab ,have fun, corrections ok
  
  i hope it is usefull, Comments and tips Welcome (MonkundA*)
Otros videos de esta canción
    731 exhibiciones
      • ½ Tono
      • A
      • Bb
      • B
      • C
      • Db
      • D
      • Eb
      • E
      • F
      • F#
      • G
      • Ab
    • Agregar a la lista

    Afinação da cifra

    Afinador online

      Ops (: Contenido disponible solo en portugués.
      OK