Cifra Club

The Conversation

Texas

Cifrado: Principal (guitarra y guitarra eléctrica)
Selo Cifra Club: esta cifra foi revisada para atender aos critérios oficiais da nossa Equipe de Qualidade.
tono: D
Introdução (4x)

      (Bm)
E|------------------------------||
B|-----------------3~~ ---------||
G|----------2\(4)------4-2-h4---||
D|------------------------------||
A|---2-x-2----------------------||
E|------------------------------||

1º Verso:
                 (Bm)
Any time we have a conversation
                   (G)
It's never what you wanna hear
               (A)
It's funny how much words can hurt you
            (Bm)
Even after all these years
               (Bm)
I wanna make an observation
                      (G)
'Bout how you tear your world apart
               (A)
And every time I try to tell you
                   (Bm)
You blame it on your fickle heart

Refrão:
            Bm
How they're hurting you
                 G
When they're not deserving you
               A
Are so, are so afraid of you
                    G
It's time to have a conversation
Bm
Give it up,
                G
I'm never gonna hold you up
                   A
You've always been afraid of love
                    G
It's time to have a conversation

(Bm) (G) (A)

2º Verso (Mesma harmonia do 1º verso):

Waking up is never easy
So why don't you come over here
Tell me 'bout the dreams that haunt you
Tell me 'bout your secret fears
I wanna change your obsession
If only I could make you see
How it's all your own creation
That's bringing you this misery

Repetir o refrão

Bm              G              A
The words you hear in your head
           Bm                Bm
Were never said, were never said
              G             A
The heart you break, you mistake
          Bm               Bm
For me instead, for me instead

Repetir o Refrão (2x)

Shapes

      Licks - Guitarra 1:

      (Bm)
E|-------------------------------||
B|-----------------3~~ ----------||
G|----------2\(4)------4--2-h4---||
D|-------------------------------||
A|---2-x-2-----------------------||
E|-------------------------------||

       (G)
E|-------------------------------||
B|---------------------3~~-------||
G|---2-h4--------2-h4------4-----||
D|--------5-x-5------------------||
A|-------------------------------||
E|-------------------------------||

      (A)
E|----------------------------------||
B|---------------------2~~ ---------||
G|---2-h4--2-x-2--2-h4-----4--2-h4--||
D|----------------------------------||
A|----------------------------------||
E|----------------------------------||

Acordes - Guitarra Base:

      Bm        G        A

E|---2----||---3---||---5---||
B|---3----||---3---||---5---||
G|---4----||---4---||---6---||
D|---4----||---5---||---7---||
A|--------||-------||-------||
E|--------||-------||-------||
Otros videos de esta canción
    679 exhibiciones
      • ½ Tono
      • A
      • Bb
      • B
      • C
      • Db
      • D
      • Eb
      • E
      • F
      • F#
      • G
      • Ab
    • Agregar a la lista

    Afinação da cifra

    Afinador online

      Ops (: Contenido disponible solo en portugués.
      OK