Enviar cifraEntrar

Foi Daquele Jeito

Thaeme e Thiago

Acordes: Principal
reproducciones 131
Tono: A
Vish, Perfeito
    A
Foi tapa na bunda, na cara
           E
Puxão de cabelo
                         Bm
Na cama, no chão e no banheiro
 D
Foi daquele jeito

Intro 2x: A E Bm D

(solo)


E|---------------------------------------------------|------------------------------------------------------|
B|---------------------------------------------------|------------------------------------------------------|
G|---------------------------------------------------|----------9-6----------9-6---------9-6--6h7-6-4-------|
D|---------------------------------------------------|--6h7-7-7------7h9-9-9-----6h7-7-7--------------4-6-7-|
A|--------7-4----------7-4---------7-4---4h5-4-2---4-|------------------------------------------------------|
E|4h5-5-5------5h7-7-7-----4h5-5-5-------------------|------------------------------------------------------|


  A                  E
Tava de blusinha amarela


E|------------------------|
B|------------------------|
G|--7/9-7-6---------------|
D|----------9-7---7/9~----|
A|--------------9---------|
E|------------------------|


 Bm                   D
Jeito safadinho que é bem a cara dela
A                      E
Chegou me xavecando, papo de gavião
   Bm                        D
Pediu meu telefone, mas não te dei atenção
 Bm                     D
E ainda pedi pra minha amiga te falar
       A                   E
Que eu tava namorando pra não me incomodar
      A                   E
Mas quando eu vi a amiga dela
   Bm                 D
Fiquei arrepiado, parti pra cima dela
   A                       E
Eu fui me aproximando, chamando sua atenção
Bm                        E
Daí que a sua amiga caiu na do meninão

(Refrão)

A                E
Você não quis? Vish, perfeito
Bm                 D
Sua amiga quis, e foi daquele jeito
     A
Foi tapa na bunda, na cara
           E
Puxão de cabelo
                         Bm
Na cama, no chão e no banheiro
 D
Foi daquele jeito (2x)

Intro 2x: A E Bm D

  A                  E
Tava de blusinha amarela
 Bm                   D
Jeito safadinho que é bem a cara dela
A                      E
Chegou me xavecando, papo de gavião
  Bm                         D
Pediu meu telefone, mas não te dei atenção
 Bm                     D
E ainda pedi pra minha amiga te falar
       A                   E
Que eu tava namorando pra não me incomodar
      A                   E
Mas quando eu vi a amiga dela
Bm                    D
Fiquei arrepiado, parti pra cima dela
   A                       E
Eu fui me aproximando, chamando sua atenção
Bm                        E
Daí que a sua amiga caiu na do meninão

(Refrão)

A                E
Você não quis? Vish, perfeito
Bm                 D
Sua amiga quis, e foi daquele jeito
     A
Foi tapa na bunda, na cara
           E
Puxão de cabelo
                         Bm
Na cama, no chão e no banheiro
 D
Foi daquele jeito (3x)
  • 1
  • 2
  • 3
  • 4
  • 5
  • 6
  • 7
  • 8
  • 9
  • 10
  • 11
  • 12
    Acordes para:

      0 comentarios

        mostrar mas comentarios

        ¿Conseguiste tocar?

        16tocaron1aún no

        ¡Grave un vídeo tocando Foi Daquele Jeito y envie para nosotros!

        00:00 / 00:00
        outros vídeos desta música
        repetirqualidadeautomática
        • automática
        Outro vídeos desta música
          00:00 / 00:00
          automática
          • automática
          Acordes para:guitarra
          dificuldadreproduccionescontribuciones
          cerrarplay/pause subir/bajar velocidad
            acordes
            cerrar
            OK
            Feedback