Cifra Club

Deus da Minha Vida

Thalles Roberto

Tablatura: Principal
reproducciones 11.141
Tono: C
Intro 4x: Dm7  Bb9(11+)

    Dm7                  Bb9(11+)
E|-----------------------------------------|
B|------------5---6-----6----X-------------|
G|-------5----5---5-----5----X-------------|
D|-----7----7---7-------0----X-------------|
A|-3/5-----------------------X-------------|
E|----------------------6----X-------------|


(Primeira Parte)
 Dm7  Bb9(11+)  Dm7 Bb9(11+)
Deus meu       Pai meu
  Dm7 Bb9(11+)  Dm7     Bb9(11+)
Amor meu       Tudo, razão de tudo

 Dm7  Bb9(11+)  Dm7  Bb9(11+)
Deus meu        Ar  Meu

   Dm7            Bb9(11+) Dm7
Farol O farol que eu   preciso

     Bb9(11+)
Como eu preciso...

Primeira Parte:

    C/D    Dm7            Bb9(11+)
E|-----------------------------------------|
B|-5h6--5h6-X---6--5-----6-----------------|
G|-5----5---X---5--5-----5-----------------|
D|-5h7--5h7-X---7--5-----0-----------------|
A|-5----5---X-0-5--------------------------|
E|-----------------8-----6-----------------|


Segunda Parte:
       Dm7                 G
Eu preciso Te sentir todo dia
     Dm7                     G
E olhar pra Tua luz pra não me perder
        Dm7                    G
Meu Senhor, Tu és a minha alegria
       Bb9(11+)
Eu preciso...

Parte 1 de 3

    C/D Dm7  C/D     Dm7 C/D
E|------5-----------5----------------------|
B|-5h6--6---5---X-X-6---5--X-X-------------|
G|-5----5---5---X-X-5---5--X-X-------------|
D|-5h7--7---5---X-X-7---5--X-X-------------|
A|-5----5---5---X-X-5---5--X-X-------------|
E|-----------------------------------------|

 ↓      ↓ ↓  ↓ ↑ ↓   ↓  ↓ ↑

Parte 2 de 3

    G
E|----------------------------------------|
B|-0--0---0--0-0----0-0-0-0---------------|
G|-0--0---0--0-0----0-0-0-0---------------|
D|-0--0---0--0-0----0-0-0-0---------------|
A|----------------------------------------|
E|-3----3-3------3--3-3-3-3---------------|

 ↓  ↑ ↓ ↓  ↑ ↑ ↓  ↓ ↑ ↓ ↑

Parte 2 de 3 (Variação)

    G
E|----------------------------------------|
B|-0--0---0--0-0-1p0----------------------|
G|-0--0---0--0-0-----2p0-----0------------|
D|-0--0---0--0-0---------0h2---2----------|
A|----------------------------------------|
E|-3----3-3-------------------------------|

 ↓  ↑ ↓ ↓  ↑ ↑

Parte 3 de 3

    Bb9(11+)
E|-0-0-0-0-0-0-0-0-0-0-0-0----------------|
B|-6-6-6-6-6-6-6-6-6-6-6-6----------------|
G|-5-5-5-5-5-5-5-5-5-5-5-5----------------|
D|-0-0-0-0-0-0-0-0-0-0-0-0----------------|
A|----------------------------------------|
E|-6-6-6-6-6-6-6-6-6-6-6-6----------------|

 ↓ ↓ ↓ ↓ ↓ ↓ ↓ ↓ ↓ ↓ ↓ ↓

Refrão:
               Bb
Deus da minha vida
 C9     Dm7
Fica comigo
           Bb
Sou a sua casa
 C9      Dm7
Mora em mim
               Bb
Deixa eu Te dizer
    C9       Dm7
O que eu preciso, Pai
       Bb
Eu preciso do Senhor...
 Bb C5(9)  Dm7 ) (4x)

Passagem: Pós Refrão

    Bb   C5(9) Dm7
E|---1-------------------------------------|
B|-----1---------------6-5------6-5--------|
G|-------3-3/5---3-----5-5------5-5--------|
D|---------3/3-3-----7-------7-------------|
A|-1-------1/3-----5-------5---------------|
E|-----------------------------------------|

    Bb5(9)  C5(9)   Dm7
E|---1--------------------------------------|
B|-----1------  ---6------------------------|
G|-------3-3/5---3-5------------------------|
D|---------3/5-3---7------------------------|
A|-1-------1/3-----5------------------------|
E|------------------------------------------|

(Repete Primeira Parte)

(Repete Segunda Parte)

(Repete Refrão)
    C9       Dm7
O que eu preciso, Pai
       Bb        C9
Eu preciso do Senho____Or

Base Solo:
( Bb C9  Dm7 ) (8x) Bb

(Repete Refrão)

0 comentarios

    mostrar más comentarios

    ¿Conseguiste tocar?

    360tocaron18aún no

    ¡Graba un vídeo tocando Deus da Minha Vida y envianoslo!

    00:00 / 00:00
    outros vídeos desta música
    repetirqualidadeautomática
    Outro vídeos desta música
      00:00 / 00:00
      automática
      Capítulos
      • Tocando Solo
      • Apresentação / Equipamentos
      • Solo (65 BPM) - Tab 1 a 13
      • Solo (82BPM) - Tab 1 a 13
      • Encerramento
      OK