Cifra Club

Gothic Girl

The 69 Eyes

Cifrado: Principal (guitarra y guitarra eléctrica)
Acompaña nuestras novedades de Cifra Club en español.
¡Sigue nuestro perfil en Instagram!
tono: Bb
Album: Blessed Be
Tuning: Dropped D, standard

Gtr 1: distorsion, neck pick-up
H\: hold note then slide down

Intro
e------------------------------------------|
B------------------------------------------|
G--------8--------8---7--------------------|
D----6-7------6-7---7----------------------|
A--8--------8------------------------------|
D------------------------------------------|

e------------------------------------------|
B------------------------------------------|
G--10-8------------------------------------|
D-------10-8-------------------------------|
A------------------------------------------|
D------------------------------------------|

Verse
e------------------------------------------|
B------------------------------------------|
G--------8-------6-7-----------------------|
D----6-7-----6-7---------------------------|
A--8-------8-----------5--1---5--8---------|
D----------------------5--1---5--8---------|

Chorus
e------------------------------------------|
B------------------------------------------|
G--10-8----------------7-8-7---------------|
D-------10-8---------8-------8-------------|
A------------------------------------------|
D------------------------------------------|

e------------------------------------------|
B------------------------------------------|
G------------------------------------------|
D-6-8--------------------------------------|
A-4-6-3---3-x-3----------------------------|
D-----3---3-x-3----------------------------|

Verse 2 same

Chorus
e------------------------------------------|
B------------------------------------------|
G--10-8----------------7-8-7---------------|
D-------10-8---------8-------8-------------|
A------------------------------------------|
D------------------------------------------|

e-------|
B-------|
G-------|
D-6-8---|
A-4-6---|
D-------|

then back to first part of chorus

e------------------------------------------|
B------------------------------------------|
G------12--8---12--8-8-8-8-8---------------|
D-6-8--12--8---12--8-8-8-8-8---------------|
A-4-6--10--6---10--6-6-6-6-6---------------|
D------------------------------------------|

back to chorus x4

Solo
e----------11H\---------11-10H\------------|
B-------10----------10---------------------|
G-10-13-------10-13------------------------|
D------------------------------------------|
A------------------------------------------|
D------------------------------------------|

and back to intro riff  Enjoy. For corrections or comments please e-mail me at *
Compositor não encontrado.
91 vistas
    • ½ Tono
    • A
    • Bb
    • B
    • C
    • Db
    • D
    • Eb
    • E
    • F
    • F#
    • G
    • Ab
  • Agregar a la lista

    0 comentarios

    Ver todos los comentarios

    ¿Lograste tocar?

    0 Tocaron 0 Aún no

    ¡Graba un video tocando Gothic Girl y envíanoslo!

    00:00 / 00:00
    Outros vídeos desta música
    Repetir Calidad Automático
    Outros vídeos desta música
    00:00 / 00:00
    Automático
    OK