Cifra Club

Wasting The Dawn

The 69 Eyes

Cifrado: Principal (guitarra y guitarra eléctrica)
Acompaña nuestras novedades de Cifra Club en español.
¡Sigue nuestro perfil en Instagram!
tono: A
Tabber:         Erkki Mela

Album:          Wasting the dawn


INTRO:

|----------------4---|
|------5---4---5-----|
|----6---6---6-------|  x4
|--------------------|
|--4-----------------|
|--------------------|

C#m | E | G#m | A E | C#m | E | G#m | A E |


During the verses is this little arpeggio thing all the time:

  C#m            E             A             E
|-----------------------------------------------------------|
|-----------------------------------------------------------|
|------6-------6-----1-------1-----2-------2-----1-------1--|
|----6-------6-----2-------2-----2-------2-----2-------2----|
|--4-------4-------------------0-------0--------------------|
|----------------0-------0-------------------0-------0------|


VERSE 1:

C#m
               E
Been runnin' away
       A           E   C#m
so long from the day
            E             A
Into the strange night of stone
           E   C#m
To fade away
         E
As the light is gently
A                     E   C#m
Bleedin' out of my soul
     E
Penetratin' the evening
     A
As I ride
E                   
On this endless road



BRIDGE:

G#m
              E               G#m
But you can't turn back the time
   A            B
It always gonna wait on the line


CHORUS:

C#m
              E           G#m
Some may wish never to be born
A   E             C#m
Wastin' the dawn
            E                           G#m
Like a rose growin' from the Christ's thorn
A   B          C#m
Wastin' the dawn


Verse 2 (Same chords as in Verse 1):

Been waitin' for you for so long
Little bird of prey
To fly me higher
To the brighter day
Where the lizard lingers long
Under the sun
Forgetting the night
Darkest July
Paris '71


BRIDGE

CHORUS 2X


Solo:

|-----------------------------------------|
|-----------------------------------------|
|------1----------------------------------|
|-1------4-2-4---2-1-2--1-----------------|
|-----------------------------------------|
|-----------------------------------------|

|-----------------------------------------|
|-----------------------------------------|
|------1--------------1-------------------|
|--------4-2-4---2-4-----1----------------|
|-----------------------------------------|
|-----------------------------------------|

|-----------------------------------------|
|-----------------------------------------|
|------1----------------------------------|
|--------4-2-4---2-1-2--1-----------------|
|-----------------------------------------|
|-----------------------------------------|

|-----------------------------------------|
|------------------0---2-4h5p4-0-2--------|
|------1---------1------------------------|
|--------4-2-4----------------------------|
|-----------------------------------------|
|-----------------------------------------|


Chorus 2X



(Intro on the background)

C#m/A | C#m/E | C#m | 2X



Chorus 2X,
except the last one changes a bit:
      A         B         C#m
We're all gonna waste the dawn
Composición de Bazie / Jyrki 69 / Timo-Timo
105 vistas
    • ½ Tono
    • A
    • Bb
    • B
    • C
    • Db
    • D
    • Eb
    • E
    • F
    • F#
    • G
    • Ab
  • Agregar a la lista

    0 comentarios

    Ver todos los comentarios

    ¿Lograste tocar?

    1 Tocaron 0 Aún no

    ¡Graba un video tocando Wasting The Dawn y envíanoslo!

    00:00 / 00:00
    Outros vídeos desta música
    Repetir Calidad Automático
    Outros vídeos desta música
    00:00 / 00:00
    Automático
    OK