Cifra Club

Colt 45 Intro

Afroman

Cifrado: Versão 2 (guitarra y guitarra eléctrica)
Acompaña nuestras novedades de Cifra Club en español.
¡Sigue nuestro perfil en Instagram!
tono: C
this is my first tab i figured it out 1 day and i descided to tab it enjoy =]

ill make it easier on u giys and split it into sections

e|---------------------------|--------------------------|
B|---------------------------|--------------------------|
G|-9~-8-7-5---5--------------|--------------------------|
D|----------7---7-5----------|------------5-5h7-7-7p5---|
A|------------------7-6-5----|--------5-7---------------|
E|------------------------8--|-5--7-8-------------------|

e|---------------------------------------------|---------------------------|
B|---------------------------------------------|---------------------------|
G|---------------5h7-7b9-7b9-7p5-7-5--------5--|------5h7-9b7p5--9b7p5-7-5-|
D|------------5h7---------------------7-5-7---7|--5h7----------------------|
A|--------5h7----------------------------------|---------------------------|
E|--5-7h8--------------------------------------|---------------------------|

e|----------|------------------------------|
B|----------|--------------8~--8~----------|
G|-------5--|------5h7-7b9-7b9-7b9b7p5-7-5-|
D|-7-5-7---7|--5h7-------------------------|
A|----------|------------------------------|
E|----------|------------------------------|

|= start/end of lick
h= hammer on
p= pull off
b= bend up/down
~= let ring

and that is the real intro to colt 45. its 99.9% right. if u have any suggestions or 
the e-main is *. well enjoy guys
Compositor não encontrado.
    • ½ Tono
    • A
    • Bb
    • B
    • C
    • Db
    • D
    • Eb
    • E
    • F
    • F#
    • G
    • Ab
  • Agregar a la lista

    0 comentarios

    Ver todos los comentarios

    ¿Lograste tocar?

    0 Tocaron 0 Aún no

    ¡Graba un video tocando Colt 45 Intro y envíanoslo!

    00:00 / 00:00
    Outros vídeos desta música
    Repetir Calidad Automático
    Outros vídeos desta música
    00:00 / 00:00
    Automático
    OK