Cifra Club

Comfort Zone

The Answer

Cifrado: Principal (guitarra y guitarra eléctrica)
tono: F# (con acordes en la forma de D) Capotraste en 4ª casa
(afinação D A D G A D)

(capo 4ª casa)

(intro/verso)
D|-----------------|-----------------|-----------------|-----------------|
A|-----------------|-----------------|-----------------|-----------------|
G|-1/2-2---2---2---|-1/2-2---4---4---|-1/2-1---1-------|-----------------|
D|-0-----0----0----|-0-----0---0-----|-0-----4---4-----|--4----4----4----|
A|-0---------------|-0---------------|-0---------------|-----------------|
D|-----------------|-----------------|-----------------|----0-----0------|

D|-----------------|-----------------|-----------------|-----------------|
A|-------0---------|------0----------|-----------------|-------0---------|
G|---0-----0----0--|---0----0----0---|-----------------|---0-----0----0--|
D|-----0------0----|-----0-----0-----|-----------0---0-|-----0------0----|
A|-2---------------|-3---------------|-------------0---|-2---------------|
D|-----------------|-----------------|-2---4---0-------|-----------------|

D|-----------------|-----------------|-----------------|-----------------|
A|------0----------|-----------------|-----------------|-----------------|
G|---0----0----0---|-----------------|-----------------|-----------------|
D|-----0-----0-----|-----------0---0-|-----------------|-----------------|
A|-3---------------|-------------0---|-----------------|-----------------|
D|-----------------|-2---4---0-------|-----------------|-----------------|

(refrão)
D|-0---0---0-0-----|-0---0---0-0-----|-0---0---0-0-0---|--0-0-0-0--------|
A|-7---7---7-7-----|-2---2---2-2-----|-0---0---0-0-0---|--0-0-0-0--------|
G|-0---0---0-0-----|-0---0---0-0-----|-2---2---2-2-2---|--2-2-2-2--------|
D|-0---0---0-0-----|-0---0---0-0-----|-0---0---0-0-0---|--0-0-0-0--------| x4
A|-0---0---0-0-----|-0---0---0-0-----|-0---0---0-0-0---|--0-0-0-0--------|
D|-7---7---7-7-----|-2---2---2-2-----|-0---0---0-0-0---|--0-0-0-0--------|

D|-----------------|-----------------|-----------------|-----------------|
A|------0----------|------0----------|------0----------|--0--------------|
G|---0----0----0---|---0----0----0---|---0----0---0----|----0---0--------|
D|-----0-----0-----|-----0-----0-----|-----4----4---4--|------4----------|
A|-----------------|-----------------|-----------------|-----------------|
D|-3---------------|-2---------------|-0---------------|-----------------|

D|-----------------|-----------------|--0--------------|-----------------|
A|------0----------|------0----------|--0--------------|-----------------|
G|---0----0----0---|---0----0----0---|--2--------------|-----------------|
D|-----0-----0-----|-----0-----0-----|--0--------------|-----------------|
A|-----------------|-----------------|--0--------------|-----------------|
D|-3---------------|-2---------------|--0--------------|-----------------|

(finalização da música)
D|-----------------|-----------------|-----------------|-----------------|
A|------0----------|------0----------|------0----------|--0--------------|
G|---0----0----0---|---0----0----0---|---0----0---0----|----0---0--------|
D|-----0-----0-----|-----0-----0-----|-----4----4---4--|------4----------|x3
A|-----------------|-----------------|-----------------|-----------------|
D|-3---------------|-2---------------|-0---------------|-----------------|

D|-----------------|-----------------|-0---------------|-----------------|
A|------0----------|------0----------|-0---------------|-----------------|
G|---0----0----0---|---0----0----0---|-2---------------|-----------------|
D|-----0-----0-----|-----0-----0-----|-0---------------|-----------------|
A|-----------------|-----------------|-0---------------|-----------------|
D|-3---------------|-2---------------|-0---------------|-----------------|
Compositor no encontrado.
Colaboración y revisión:
  • João Costa
23 vistas
    • ½ Tono
    • A
    • Bb
    • B
    • C
    • Db
    • D
    • Eb
    • E
    • F
    • F#
    • G
    • Ab
  • Agregar a la lista

    0 comentarios

    Ver todos los comentarios

    ¿Lograste tocar?

    0 Tocaron 0 Aún no

    ¡Graba un video tocando Comfort Zone y envíanoslo!

    00:00 / 00:00
    Otros videos de esta canción
    Repetir Calidad Automático
    Otros videos de esta canción
    00:00 / 00:00
    Automático
    OK