Cifra Club

Its Over Its Over Its Over

The Answering Machine

Cifrado: Principal (guitarra y guitarra eléctrica)
Selo Cifra Club: esta cifra foi revisada para atender aos critérios oficiais da nossa Equipe de Qualidade.
tono: E
Intro:

E|--x--x--x---x----x--x--x--x--x--|--x--x--x---x----x--x--x--x--x----------|
B|--x--x--x---x----x--x--x--x--x--|--x--x--x---x----x--x--x--x--x----------|
G|--9--9--9---8----4--4--4--4--4--|--9--9--9---8----4--4--4--4--4----------|
D|--x--x--x---x----4--4--4--4--4--|--x--x--x---x----4--4--4--4--4----------|
A|--7--7--7---6----2--2--2--2--2--|--7--7--7---6----2--2--2--2--2----------|
E|--0--0--0---0----0--0--0--0--0--|--0--0--0---0----0--0--0--0--0----------|

  (Play this BDA K 2x)

    A           A/D           A           A/D          E
E|--0--0--0--0--0--0--0--0-|--0--0--0--0--0--0--0--0-|-0--0--0--0--0--0--0-|
B|--2--2--2--2--0--0--0--0-|--2--2--2--2--0--0--0--0-|-0--0--0--0--0--0--0-|
G|--2--2--2--2--2--2--2--2-|--2--2--2--2--2--2--2--2-|-1--1--1--1--1--1--1-|
D|--2--2--2--2--2--2--2--2-|--2--2--2--2--2--2--2--2-|-2--2--2--2--2--2--2-|
A|--0--0--0--0--0--0--0--0-|--0--0--0--0--0--0--0--0-|-2--2--2--2--2--2--2-|
E|--0--0--0--0--0--0--0--0-|--0--0--0--0--0--0--0--0-|-0--0--0--0--2--0--0-|

Verse (play 2x)
    
    A                             B                Gm
E|--x-x-x-x-x-x-x--x-x-x-x-x-x-x-|-x-x-x-x-x-x-x-x--x-x-x-x-x-x-x-x-------|
B|--x-x-x-x-x-x-x--x-x-x-x-x-x-x-|-x-x-x-x-x-x-x-x--x-x-x-x-x-x-x-x-------|
G|--x-x-x-x-x-x-x--x-x-x-x-x-x-x-|-x-x-x-x-x-x-x-x--x-x-x-x-x-x-x-x-------|
D|--7-7-7-7-7-7-7--7-7-7-7-7-7-7-|-9-9-9-9-9-9-9-9--6-6-6-6-6-6-6-6-------|
A|--7-7-7-7-7-7-7--7-7-7-7-7-7-7-|-9-9-9-9-9-9-9-9--6-6-6-6-6-6-6-6-------|
E|--0-0-0h5-5-5-5--0-0-0h5-5-5-5-|-7-7-7-7-7-7-7-7--4-4-4-4-4-4-4-4-------|

Chorus (play 2x)

    F#m               Gm       E         Gm        E
E|--2-2-2-2-2-2-2-2-|-x-x-x-x--0-0-0-0-|--x-x-x-x--0-0-0-0---------|
B|--2-2-2-2-2-2-2-2-|-x-x-x-x--0-0-0-0-|--x-x-x-x--0-0-0-0---------|
G|--2-2-2-2-2-2-2-2-|-x-x-x-x--1-1-1-1-|--x-x-x-x--1-1-1-1---------|
D|--4-4-4-4-4-4-4-4-|-6-6-6-6--2-2-2-2-|--6-6-6-6--2-2-2-2---------|
A|--4-4-4-4-4-4-4-4-|-6-6-6-6--2-2-2-0-|--6-6-6-6--2-2-2-2---------|
E|--2-2-2-2-2-2-2-2-|-4-4-4-4--0-0-0-0-|--4-4-4-4--0-0-0-0---------|



(Play Verse)
I'm everything that I claim to be, 
Just lace my head with drink for honesty. 
My hearts out of bounds, and you're out of town 
So hurry up and keep it simple. 

(Play Break)
Just hold me tight, 
Cause we've got time. 

(Play Chorus)
And she said Oh, I'm sorry for what I did, 
She took me down the halls and spires, the telephone wires. 
And she said Oh, I'm sorry for what I did, 
And she told me its over, its over, its over. 

(Intro)
I'm not as smart as I'd like to think, but I'm young.
I'm not as smart as I'd like to think, but I'm young.
And it's over 

(Break)

(Verse)
People have no rights, they have great wrongs, 
Bands have no rights, they only have great songs. 
Don't use big words coz they mean so little, 
Just hurry up and keep it simple. 

(Break)
Just hold me tight, 
Cause we've got time. 

(Chorus)
And she said Oh, I'm sorry for what I did, 
She took me down the halls and spires, the telephone wires. 
And she said Oh, I'm sorry for what I did, 
And she told me it's over, it's over, it's over. 

(intro)
I'm not as smart as I'd like to think, but I'm young. 
It's over!
Otros videos de esta canción
    1 exhibiciones
      • ½ Tono
      • A
      • Bb
      • B
      • C
      • Db
      • D
      • Eb
      • E
      • F
      • F#
      • G
      • Ab
    • Agregar a la lista

    Afinación de cifrado

    Afinador online

      OK