Cifra Club

Abraham's Daughter

Arcade Fire

Cifrado: Principal (guitarra y guitarra eléctrica)
Acompaña nuestras novedades de Cifra Club en español.
¡Sigue nuestro perfil en Instagram!
tono: D
E|----0---3---2---5---3---7---5---8---7---3---5---1---0---0---
B|--0---0---0---0---0---0---0---0---0---0---0---0---0----0----
G|------------------------------------------------------------(x2)
D|------------------------------------------------------------
A|------------------------------------------------------------
E|-----------------------------------------------------------

Abraham took Isaac's hand
And led him to the lonesome hill.
While his daughter hid and watched,
She dare not breathe.
She was so still.

E|--7-7-7b8r7--5-5-5b7r5--3-3-3b5r3--2---2-0------------------
B|-------------------------------------3----------------------
G|------------------------------------------------------------
D|------------------------------------------------------------
A|------------------------------------------------------------
E|------------------------------------------------------------

Just as an angel cried for the slaughter,
Abraham's daughter raised her voice.

E|----0---3---2---5---3---7---5---8---7---3---5---1---0---0---
B|--0---0---0---0---0---0---0---0---0---0---0---0---0----0----
G|------------------------------------------------------------(x2)
D|------------------------------------------------------------
A|------------------------------------------------------------
E|-----------------------------------------------------------

Then the angel asked her what her name was,
She said, "I have none."
Then he asked, "How can this be?"
"My father never gave me one."

E|--7-7-7b8r7--5-5-5b7r5--3-3-3b5r3--2---2-0------------------
B|-------------------------------------3----------------------
G|------------------------------------------------------------(x2)
D|------------------------------------------------------------
A|------------------------------------------------------------
E|------------------------------------------------------------
And when he saw her, raised for the slaughter,
Abraham's daughter raised her bow.
How dare you, child, defy your father?
You better let young Isaac go.
Composición de Arcade Fire / Régine Chassagne / T-Bone Burnett / Win Butler
Colaboración y revisión:
  • Gabriela Delaqua
294 vistas
    • ½ Tono
    • A
    • Bb
    • B
    • C
    • Db
    • D
    • Eb
    • E
    • F
    • F#
    • G
    • Ab
  • Agregar a la lista

    0 comentarios

    Ver todos los comentarios

    ¿Lograste tocar?

    3 Tocaron 0 Aún no

    ¡Graba un video tocando Abraham's Daughter y envíanoslo!

    00:00 / 00:00
    Outros vídeos desta música
    Repetir Calidad Automático
    Outros vídeos desta música
    00:00 / 00:00
    Automático
    OK