Cifra Club

The Suburbs

Arcade Fire

Tablatura: Principal
reproducciones 2.634
Tono: A
D              Bsus2
In the suburbs I
F#             A
I learned to drive  And you told me
  D               Bsus2
we'd never survive

F#                 A
Grab your mother's keys we're leavin'
D                   Bsus2
You always seemed so sure
F#           A
That one day we'd be fighting
D           Bsus2
A suburban war
F#            A
your part of town against mine
             D                    Bsus2
I saw you standing on the opposite shore
F#         A
But by the time the first bombs fell
D                Bsus2
We were already bored
F#                A
We were already, already bored

D            Bm
Som etimes I can't believe it
 F#       E
I'm movin' past the feeling
D            Bm
Sometimes I can't believe it
F#           E
I'm movin' past the feeling again


( D Bsus2 F# A )

Kids wanna be so hard
But in my dreams we're still screamin' and runnin' through the yard
And all of the walls that they built in the seventies finally fall
And all of the houses they built in the seventies finally fall
Meant nothin' at all
Meant nothin' at all
It meant nothin


 (D Bm F# E )

Sometimes I can't believe it
I'm movin' past the feeling
Sometimes I can't believe it
I'm movin' past the feeling and into the night


(D Bsus2 F# A)

So can you understand?
Why I want a daughter while I'm still young
I wanna hold her hand
And show her some beauty
Before this damage is done

But if it's too much to ask, it's too much to ask
Then send me a son

Under the overpass
In the parking lot we're still waiting
It's already passed
So move your feet from hot pavement and into the grass
Cause it's already passed
It's already, already passed!



 (D Bm F# E )

Sometimes I can't believe it
I'm movin' past the feeling
Sometimes I can't believe it
I'm movin' past the feeling again


I'm movin' past the feeling
I'm movin' past the feeling

In my dreams we're still screamin'
We're still screamin'
We're still screamin'


*Accompany 1
Guitar 2 with variation
--------

E|---------------------------------------------------------------------------|
B|-7-----5-----5-----4-------------------------------------------------------|
G|---------------------------------------------------------------------------|
D|---------------------------------------------------------------------------|
A|---------------------------------------------------------------------------|
E|---------------------------------------------------------------------------|


*Verse2

*Chorus2

*Solo 1 (2:27) Repeat x2
Guitar 1 (capo 2)
-----------------


E|----------14------------------12--11------11------11------11-----------------------|
B|------12------12------12--------------11------11-----------------------------------|
G|--13--------------13------13--------------------------13------13-------------------|
D|------------------------------------------------------------------11---------------|
A|----------------------------------------------------------------------13-----------|
E|-----------------------------------------------------------------------------------|


or...play it like this, a bit harder but the slides sound more accurate.


E|--------14---------------12--11------11------11-----11-----------------------------|
B|--9--12-----12--9--12--9---------11------11------9------9--------------------------|
G|-----------------------------------------------------------11----------------------|
D|---------------------------------------------------------------13------------------|
A|-----------------------------------------------------------------------------------|
E|-----------------------------------------------------------------------------------|
Acordes para:

    0 comentarios

      mostrar más comentarios

      ¿Conseguiste tocar?

      44tocaron0aún no

      ¡Graba un vídeo tocando The Suburbs y envianoslo!

      00:00 / 00:00
      outros vídeos desta música
      repetirqualidadeautomática
      Outro vídeos desta música
        00:00 / 00:00
        automática
        OK