Cifra Club

A Hazy Shade Of Winter

The Bangles

Cifrado: Principal (guitarra y guitarra eléctrica)
tono: Fm
Fm    Fm7   Fm9                       Eb 
Time, time, time, see what's become of me

[Riff]

E|-------------------------------------------------------------|
B|---------1----------4-2--------------1-----------------------|
G|-----1-3---3-1----3-----3--------1-3---3-1---3-5-3-5---------|
D|-3-3-----------1-------------1-1-----------1-----------------|
A|-------------------------------------------------------------|
E|-------------------------------------------------------------|

Fm                                     Eb 
Time, time, time, see what's become of me
       Db 
While I looked around 
            Cm 
For my possibilities 
         Eb       
I was so hard to please
                        
Look around, leaves are brown, and the sky 

Is a hazy shade of winter
 
E|-------------------------------------------------------------|
B|---------1----------4-2--------------1-----------------------|
G|-----1-3---3-1----3-----3--------1-3---3-1---3-5-3-5---------|
D|-3-3-----------1-------------1-1-----------1-----------------|
A|-------------------------------------------------------------|
E|-------------------------------------------------------------|

                  Eb
Hear the salvation army band 
Db 
Down by the riverside, it's bound to be a better ride 
     Cm
Than what you've got planned 
    Eb
Carry your cup in your hand

Look around, leaves are brown, and the sky 

Is a hazy shade of winter
 
E|-------------------------------------------------------------|
B|---------1----------4-2--------------1-----------------------|
G|-----1-3---3-1----3-----3--------1-3---3-1---3-5-3-5---------|
D|-3-3-----------1-------------1-1-----------1-----------------|
A|-------------------------------------------------------------|
E|-------------------------------------------------------------|

          Eb
"Hang on to your hopes, my friend" 
Db
That's an easy thing to say, but if your hopes should pass away 
Cm
Simply pretend 
           Eb
That you can build them again 

Look around, grass is high, fields are ripe 

It's the springtime of my life

E|-------------------------------------------------------------|
B|---------1----------4-2--------------1-----------------------|
G|-----1-3---3-1----3-----3--------1-3---3-1-------------------|
D|-3-3-----------1-------------1-1-----------1-----------------|
A|-------------------------------------------------------------|
E|-------------------------------------------------------------|

Db                            Ab     Ab7M
Ahhh, seasons change with the scenery 
                  Eb9 
Weaving time in a tapestry 
                   Fm  C7  Fm 
Won't you stop and remember me 

[Riff]

E|-------------------------------------------------------------|
B|---------1----------4-2--------------1-----------------------|
G|-----1-3---3-1----3-----3--------1-3---3-1---3-5-3-5---------|
D|-3-3-----------1-------------1-1-----------1-----------------|
A|-------------------------------------------------------------|
E|-------------------------------------------------------------|

E|-------------------------------------------------------------|
B|---------1----------4-2--------------1-----------------------|
G|-----1-3---3-1----3-----3--------1-3---3-1---3-5-3-5---------|
D|-3-3-----------1-------------1-1-----------1-----------------|
A|-------------------------------------------------------------|
E|-------------------------------------------------------------|

Look around, leaves are brown, and the sky 

Is a hazy shade of winter
 
E|-------------------------------------------------------------|
B|---------1----------4-2--------------1-----------------------|
G|-----1-3---3-1----3-----3--------1-3---3-1---3-5-3-5---------|
D|-3-3-----------1-------------1-1-----------1-----------------|
A|-------------------------------------------------------------|
E|-------------------------------------------------------------|

Look around, leaves are brown

There's a patch of snow in the ground

E|-------------------------------------------------------------|
B|---------1----------4-2--------------1-----------------------|
G|-----1-3---3-1----3-----3--------1-3---3-1---3-5-3-5---------|
D|-3-3-----------1-------------1-1-----------1-----------------|
A|-------------------------------------------------------------|
E|-------------------------------------------------------------|

Look around, leaves are brown 

There's a patch of snow on the ground

E|-------------------------------------------------------------|
B|---------1----------4-2--------------1-----------------------|
G|-----1-3---3-1----3-----3--------1-3---3-1---3-5-3-5---------|
D|-3-3-----------1-------------1-1-----------1-----------------|
A|-------------------------------------------------------------|
E|-------------------------------------------------------------|

Look around, leaves are brown 

There's a patch of snow on the ground

E|-------------------------------------------------------------|
B|---------1----------4-2--------------1-----------------------|
G|-----1-3---3-1----3-----3--------1-3---3-1---3-5-3-5---------|
D|-3-3-----------1-------------1-1-----------1-----------------|
A|-------------------------------------------------------------|
E|-------------------------------------------------------------|
Compositor não encontrado.
Colaboración y revisión:
  • Pedro Novo
217 vistas
    • ½ Tono
    • Am
    • Bbm
    • Bm
    • Cm
    • C#m
    • Dm
    • Ebm
    • Em
    • Fm
    • F#m
    • Gm
    • G#m
  • Agregar a la lista

    0 comentarios

    Ver todos los comentarios

    ¿Lograste tocar?

    0 Tocaron 0 Aún no

    ¡Graba un video tocando A Hazy Shade Of Winter y envíanoslo!

    00:00 / 00:00
    Outros vídeos desta música
    Repetir Calidad Automático
    Outros vídeos desta música
    00:00 / 00:00
    Automático
    OK