Cifra Club

Aprenda

Eternal Flame

The Bangles

Tablatura: Principal (guitarra)
tono: C
[Intro] G  G4  G  G4  G       
      
E|-7---7---8---8---7---7---8-------------|
B|-8---8---8---8---8---8---8-------------|
G|---7---7---7---7---7---7---7-----------|
D|------------------------------2-0------|
A|----------------------------------2----|
E|------------------------------------3--|

G           Em7   C            D          G
 Close your eyes, give me your hands, darling
         Em7           C       D             Em7
 Do you feel my heart beating, do you understand?
         B7       Em7  A7        D   Bm
 Do you feel the same? Am I only dreaming,
 Am7
 Is this burning an eternal flame?

G     Em7        C         D      G
 I believe, it's meant to be, darling
              Em7          C       D             Em7
 I want you when you are sleeping, you belong with me
         B7       Em7  A7        D   Bm
 Do you feel the same? Am I only dreaming,
    Am7             Am         D
 Or is this burning an eternal flame?
 
        Dm7   G/D                    D
 Say my name, sun shines through the rain
         F       G               C        G/B       Am7  C/G  D
 A whole life so lonely and then come and ease the pain
         Bm7             F/C  C     D9
 I don't wanna lose this fee-ling, oh

E|-----------------------------------------------|
B|--12--12---12/13/12--10------------------------|
G|-------------------------12------14------16----|
D|-----------------------------14------14--------|
A|-----------------------------------------------|
E|-----------------------------------------------|

E|-----------------------------------------------|
B|-----------------------------------------------|
G|-----------------------------------------------|
D|--12--12-10/9--10--12-10/9--10-----------------|
A|-----------------------------------------------|
E|-----------------------------------------------|

        Dm7   G/D                    D
 Say my name, sun shines through the rain
         F       G               C        G/B       Am7  C/G  D
 A whole life so lonely and then come and ease the pain
         Bm7             F/C  C     D9
 I don't wanna lose this fee-ling, oh

G           Em7   C            D          G
 Close your eyes, give me your hands, darling
         Em7           C       D             Em7
 Do you feel my heart beating, do you understand?
         B7       Em7  A7        D   Bm
 Do you feel the same? Am I only dreaming
 Am7
 Is this burning an eternal flame?
Composição de Billy Steinberg / Susanna Hoffs / Tom Kelly
6.232 reproducciones
    • ½ Tono
    • A
    • Bb
    • B
    • C
    • Db
    • D
    • Eb
    • E
    • F
    • F#
    • G
    • Ab
  • Adicionar à lista

    0 comentarios

    Ver todos os comentários

    ¿Conseguiste tocar?

    16 Tocaram 2 Ainda não

    Grave um vídeo tocando Eternal Flame e nos envie!

    00:00 / 00:00
    outros vídeos desta música
    repetir qualidade Automático
    Outros vídeos desta música
    00:00 / 00:00
    Automático
    OK