Cifra Club

Aprenda

A Day In The Life

The Beatles

Tablatura: Principal (guitarra)
tono: C
[Intro] G  Bm  Em  Em7  C/G

G            Bm            Em       Em7
  I read the news today oh boy
C         G/B           A9
  About a lucky man who made the grade
G                Bm              Em       Em7
  And though the news was rather sad
C/G           F7M/C     Em     Em7
  Well I just had to laugh
C/G         F7M/C   Em     C/G
  I saw the photograph

G             Bm            Em       Em7
  He blew his mind out in a car
C           G/B             A9
  He didn't notice that the lights had changed
G            Bm                Em       Em7
  A crowd of people stood and stared
C/G               F7M/C
  They'd seen his face before

Em                          Em7                      C/G
  Nobody was really sure if he was from the House of Lords

G        Bm            Em      Em7
 I saw a film today oh boy
C            G/B           A9
 The English army had just won the war
G           Bm             Em      Em7
 A crowd of people turned away
C/G         F7M/C
 But I just had to look
Em      Em7      C/G
 Having read the book

C/G          Em     
 I'd love to turn you on

   Em              F#              G         
E|-0---0---0---0---0---0---0---0---0---0---0---0----|
B|-0h1-0h1-0h1-0h1-0h1-0h1-0h1-0h1-0h1-0h1-0h1-0h1--|
G|--------------------------------------------------|
D|--------------------------------------------------|
A|--------------------------------------------------|
E|-0---0---0---0---2---2---2---2---3---3---3---3----|

   A               B               C         
E|-0---0---0---0---0---0---0---0---0---0---0---0----|
B|-0h1-0h1-0h1-0h1-0h1-0h1-0h1-0h1-0h1-0h1-0h1-0h1--|
G|--------------------------------------------------|
D|--------------------------------------------------|
A|-0---0---0---0---2---2---2---2---3---3---3---3----|
E|--------------------------------------------------|

   D               Em                   
E|-0---0---0---0---0---0---0---0---0---0---0---0----|
B|-0h1-0h1-0h1-0h1-0h1-0h1-0h1-0h1-0h1-0h1-0h1-0h1--|
G|--------------------------------------------------|
D|-0---0---0---0---2---2---2---2---2---2---2---2----|
A|--------------------------------------------------|
E|--------------------------------------------------|

   Em                                  
E|-0---0---0---0----|
B|-0h1-0h1-0h1-0----|
G|------------------|
D|-2---2---2---2----|
A|------------------|
E|------------------|

E                                                    D9
 Woke up, fell out of bed, dragged a comb across my head
          E                  B7
 Found my way downstairs and drank a cup
      E             B7
 And looking up, I noticed I was late
          E                                                D9
 Found my coat and grabbed my hat, made the bus in seconds flat
          E                B7
 Found my way upstairs and had a smoke
      E                    B7
 And somebody spoke and I went into a dream

 C/G       G           D         A       E   E7
 Aah ah ah ah   Aah ah ah  Ah ah ah     Ah
 C/G       G           D         A       E  C/G  G
 Aah ah ah ah   Aah ah ah  Ah ah ah

G            Bm            Em      Em7
  I read the news today oh boy
C               G/B                 A9
  Four thousand holes in Blackburn Lancashire
G                Bm                Em      Em7
  And though the holes were rather small
C/G           F7M/C
  They had to count them all
Em                                   Em7                   C/G
  Now they know how many holes it takes to fill the Albert Hall

C/G          Em
 I'd love to turn you on
Composição de John Lennon / Paul McCartney
60.204 reproducciones
    • ½ Tono
    • A
    • Bb
    • B
    • C
    • Db
    • D
    • Eb
    • E
    • F
    • F#
    • G
    • Ab
  • Adicionar à lista

    0 comentarios

    Ver todos os comentários

    ¿Conseguiste tocar?

    105 Tocaram 3 Ainda não

    Grave um vídeo tocando A Day In The Life e nos envie!

    00:00 / 00:00
    outros vídeos desta música
    repetir qualidade Automático
    Outros vídeos desta música
    00:00 / 00:00
    Automático
    OK