Cifra Club

Abbey Road Medley

The Beatles

Cifrado: Principal (guitarra y guitarra eléctrica)
tono: G
Am7                    Dm7
You never give me your money
G                     C
You only give me your funny paper  
Fmaj7                Dm6    E
And in the middle of negotiations
    Am     
You break down

Am7                 Dm7
I never give you my number
G                  C
I only give you my situation
Fmaj7                Dm6     E
And in the middle of investigations
    Am
You break down

C               E7
Out of college, money spent
Am             C7
See no future, pay no rent
F               G                C  C7
All the money's gone, nowhere to go

C          E7
Any jobber got the sack
Am              C7
Monday morning, turning back
F            G                C  C7
Yellow lorry slow, nowhere to go

    Bb            F
But oh that magic feeling
F          C
Nowhere to go
Bb             F
Oh, that magic feeling
F          C              
Nowhere to go, Nowhere to go

( Bb  F  C  Bb  F  C  Bb  F )
( C  D7  Eb  G7  C  A7  Eb  C7  F#  Eb7  A   F#  G  G# )

A          B7
  One sweet dream
C    
Pick up the bags
E7         A7
Get in the limousine

Dm7            G7
Soon We'll be away from here
Dm7                 G7              A
Step on the gas and wipe that tear away
          B7         Cmaj7  G
One sweet dream come true, 
    A         C  G  A
Today, Came true today

  C           Cmaj7               A
E|---------------------------------------------5-----------------|
B|------------------------0-------------------2------------------|
G|--------0-----------0-------0-----------2----------------------|
D|----2-----------0-------------------2--------------------------|
A|3-----------2-------------------0------------------------------|
E|---------------------------------------------------------------|

C             G
One two three four five six seven
A
All good children go to heaven

E|----------------------------------------------------------------|
B|----------------------------------------------------------------|
G|-------------------------------------------------------------2--|
D|-------------------------------------------------------------2--|
A|-----------------------------------------------------2---2/4----|
E|----------------------------------------------------------------|

E|----------------------------------------------------------------|
B|----------------------------------------------------------------|
G|-------------------------------------------------------------2--|
D|------------2---2----------------------------2-2-2-----------2--|
A|4\2-------------------------------------------------2--2/4------|
E|0------------------------------|0-------------------------------|

E|----------------------------------------------------------------|
B|----------------------------------------------------------------|
G|----------------------------------------------------------------|
D|-----------2----2----------------------------2-2-2--------------|
A|4\2---------------------------------------------------------2---|
E|0-------------------------------0-------------------0-2/4-------|

  F#m7                                                    B6
e|0---------2-----0---------2-----0---------2-----0---------4-----|
B|------2-----2---------2-----2----------2-----2---------2/4---4--|
G|----2---------------2----------------2---------------2----------|
D|------------2---2----------------------------2---2--------------|
A|---------------------------------------------------------2------|
E|2-------------------------------2-------------------------------|

  E6
e|0---------------------------------------------------------------|
B|----------2-----------------------------------------------------|
G|------1-----1---------------2-----------------------------------|
D|----2-------2---2-----------2----------------2------------------|
A|--------------------2--2/4-------4\2-----------------0---2------|
E|0------------------------------0----------------4-----------2--|

  F#m7                                                    B6
e|0---------2-----0---------2-----0---------2-----0---------4-----|
B|------2-----2---------2-----2----------2-----2---------2/4---4--|
G|----2---------------2----------------2---------------2----------|
D|------------2---2----------------------------2---2--------------|
A|---------------------------------------------------------2------|
E|---------------------------------2------------------------------|

  E6
e|0---------------------------------------------------------------|
B|----------2-----0-----------------------------------------------|
G|------1-----1---------------2-----------------------------------|
D|----2-------2---2-----------2----------------2-2-2--------------|
A|--------------------2--2/4-------4\2---------------------0---2--|
E|0-------------------------------0-------------------4-----------|

  F#m7                                                 Gm7  B6
e|2----2----2-----2-------------------------------2----3----4----|
B|2----2----2-----2-------------------------------2----3----4----|
G|2----2----2-----2-------------------------------2----3----4----|
D|------------2---2----------------------------2-2-2----3----4---|
A|-----------------------------------------------------------2---|
E|2-------------------------------2------------------------------|

  E6                                                           G7sus2
E|-----0---------------------------9----------------------------1-|
B|----2----------------------------9-----------------------------3|
G|---1------------------------2----9------------------------------2|
D|--2---------2---2-----------2----9---------------2--------------|
A|-2------------------2--2/4-------------------2-----------2------|
E|0------------------------------|0------------------------------|

E|----------------------------------------------------------------|
B|----------------------------------------------------------------|
G|----------------------------------------------------------------|
D|----------------------------------------------------------------|
A|----------------------------------------------------------------|
E|3--------------------------------------------------------------|

C    Cmaj7    Gm7  A7
Here come the Sun King
C    Cmaj7    Gm7  A7   F
Here come the Sun King
F                D7     F
Everybody's laughing
F              D7    
Everybody's happy
C    Em7      C7  F
Here come the Sun King

F#m7                                B6  E6  E
Cuando para mucho mi amore de felice corazón
F#m7                                 B6    E6  E   
Mundo paparazzi mi amore chicka ferdy para sol
F#m7                                       B6   E6  E6* 
Cuesto obrigado tanta mucho que can eat it carousel

E|------------------------------------|
B|------------------------------------|
G|---------------2--------------------|
D|---------------2--------------------|
A|---2----2/4-----------4/2-----------|
E|----------------------0-------------|

E                       Esus4
Mean Mr. Mustard sleeps in the park
              E               Esus4     E
Shaves in the dark, trying to save pa - per
B7                          B7   C7   C#7   D7
Sleeps in a hole in the road
D7                              D7   C#7   C7   B7
Saving up to buy his new clothes
B7
Keeps a ten bob note up his nose
       E        C   B7          E        C   B7
Such a mean old man...   Such a mean old man

E                    Esus4
His sister Pam works in a shop
          E             Esus4     E
She never stops she's a go - ge - tter
B7                                B7   C7   C#7   D7
Takes him out to look at the Queen
D7                            D7   C#7   C7   B7
Only place that he's ever been
B7
Always shouts out something obscene
       E         C   B7   E         C   B7   B7   C7   C#7
Such a dirty old man...   Dirty old man

( D  A  E )
( D  A  E )

                D   A         E
Well you should see Polythene Pam
         D                    A            E
She's so good-looking but she looks like a man
                G                              B7*
Well you should see her in drag dressed in her polythene bag
               C   D         E
Yes you should see Polythene Pam
C    D    E     
Yeah yeah yeah

( D  A  E )
( D  A  E )

      D              A             E
Get a dose of her in jackboots and kilt
      D                        A             E   
She's killer-diller when she's jacked to the hilt
          G                              B7*
She's the kind of a girl that makes the "News of the World"
              C             D          E
Yes you could say she was attractively built
C    D    E
Yeah yeah yeah

( D  A  E )
( D  A  E )

[Solo]
 
E|---------------------------------------------------------------|
B|---------------------------8b10-----8h10p8------------8--8b10--|
G|----------------------7-9------------------9v------9-----------|
D|-----------------7-/9------------------------------------------|
A|---------------------------------------------------------------|
E|---------------------------------------------------------------|

E|---------------------------------------------------------------|
B|--b10r8p5---------------8-8b10----b10r8-p5----7---7-9----------|
G|----------9--9------7-9--------------------9----9--------------|
D|---------------------------------------------------------------|
A|---------------------------------------------------------------|
E|---------------------------------------------------------------|

E|------------------------12-------------------------------------|
B|--8-12b13-12--12p10-------------8-10-10b12--10-b12--r10p8------|
G|--------------------12------------------------------------9----|
D|---------------------------------------------------------------|
A|---------------------------------------------------------------|
E|---------------------------------------------------------------|

E|---------------------------------------------------------------|
B|--8-10-10b12--b12r10p8-8---------8--10b12--r10p8---8-8b10--8---|
G|------------------------------9------------------9-------------|
D|---------------------------------------------------------------|
A|---------------------------------------------------------------|
E|---------------------------------------------------------------|

E|--------------------------------------------------------------------------|
B|--8--10b12-10b12-10b12r10p8-------------------------------8-10b12r10p8----|
G|----------------------------9---7-----------------------------------------|
D|----------------------------------9-7----------------------------------7--|
A|--------------------------------------10--7---5---4---2-------------------|
E|--------------------------------------------------------------------------|

E|-------------------------------------------------------------|
B|-------------------------------------------------------------|
G|-------------------------------------------------------------|
D|---2------0--------------------------------------------------|
A|--------------------4----------2-------------------0---------|
E|-------------------------------------------------------------|

                                    D
 She came in through the bathroom window
A                        D
 Protected by a silver spoon
A                                   D
 But now she sucks her thumb and wonders
                               A
By the banks of her own lagoon

                Dm      A
Didn't anybody tell her?
                Dm
Didn't anybody see?
  G7                         C  C/B
Sunday's on the phone to Monday
  G7                      C   A
Tuesday's on the phone to me

                               D     A
She said she'd always been a dancer
                               D    A
She worked in fifteen clubs a day
                                   D
And though she thought I knew the answer
                                  A
Well, I knew but I could not say

                             D       A
And so I quit the police department
                         D    A
And got myself a steady job
                                  D
And though she tried her best to help me
                                      A
She could steal but she could not rob

                Dm      A
Didn't anybody tell her?
                Dm
Didn't anybody see?
  G7                         C  C/B
Sunday's on the phone to Monday
  G7                      C      A
Tuesday's on the phone to me oh yea 

[Intro]
(    Am7 )

   [Verse 1]
Am7                                   Dm
Once, there was a way to get back homeward
G7                                C
Once, there was a way to get back home
E7               Am    Asus2  Dmadd9
Sleep, pretty darling, do not cry
G7                     C
And I will sing a lullaby


   [Chorus]
C       Fadd9             C
Golden slumbers fill your eyes
             Fadd9        C
Smiles awake you when you rise
E7               Am    Asus2  Dmadd9
Sleep, pretty darling, do not cry
G7                     C
And I will sing a lullaby


   [Verse 2]
Am7                                   Dm
Once, there was a way to get back homeward
G7                                C
Once, there was a way to get back home
E7               Am    Asus2  Dmadd9
Sleep, pretty darling, do not cry
G7                     C
And I will sing a lullaby


CARRY THAT WEIGHT

[Chorus]
C                    G
Boy, you're going to carry that weight,
                    C
Carry that weight a long time
C                    G
Boy, you're going to carry that weight
                    C          G/B
Carry that weight a long time


   [Link Instrumental]
Am7    Am7/D   Dm7   G7    Csus4  C  Cmaj7
Fmaj7  Bm      E7    Am  


   [Verse 1]
Am7                 Am7/D  Dm7
I never give you my pil....low
G7                 Csus4  C  Cmaj7  
I only send you my in....vi.tations
Fmaj7                    Bm  E7
And in the middle of the celebrations
  Am7        G   C
I break down


   [Chorus]
C                    G
Boy, you're going to carry that weight
                    C
Carry that weight a long time
C                    G
Boy, you're going to carry that weight
                    C         G/B   A
Carry that weight a long time


   [Link]
C    G/B   A
C    G/B   A

  C           G/B               A      (releitura You Never Give Me Your Money)
E|----------------| ------- --------------- ----5-- ------- -------|
B|------------------------0--------------------2------------------|
G|--------0-----------0-------0------------2----------------------|
D|----2-----------0--------------------2--------------------------|
A|3-----------2------------------|0------------------------------|
E|----------------------------------------------------------------|

THE END

(Intro)
E|-----------------------------------------------------------------|
B|------13b--------15b---------------------------------------------|
G|--12b---------14b------------------------------------------------|
D|-----------------------------------------------------------------|
A|---------------------------4-----4---5--6-7---8--9------7-7------|
E|---------------------------5-----5---7--8-9--10-11-----------9---|

N/C
(Drum Break)
A  D     B   E
Oh yeah, all right
A                         B7       A
Are you going to be in my dreams Tonight?

N.C.
(Drum Solo)

   [Link]
A7   D7   A7   D7


   [Verse 1]
A7       D7       A7       D7
Love You Love You Love You Love You
A7       D7
Love You Love You

(Famoso Solo)

Paul

E|------------------------------------------------------------------|
B|------------10--------10-8----------------------------------------|
G|--9-9-9--9---------9--------7/5----5h7---5------------------------|
D|--------------------------------7------------7p5------------------|
A|------------------------------------------------------------------|
E|------------------------------------------------------------------|

George

E|------------------------------------------------------------------|
B|-----10----10--13b---13r--10h13p10---10----10---------------------|
G|--12----12------------------------12---12----9--7--5--------------|
D|--------------------------------------------------------7---------|
A|------------------------------------------------------------------|
E|------------------------------------------------------------------|

John

E|------------------------------------------------------------------|
B|--12-12--12-12p10-12--12-12p10-12p10--12--12--12-12-12\---5-------|
G|--12-12--12-12----12--12-12----12-----12--12--12-12-12\5--5-------|
D|----------------------------------------------------------5-------|
A|------------------------------------------------------------------|
E|------------------------------------------------------------------|

Paul

E|-8-8-8-8---------------5--5-8\10--|
B|---------5-------5-4-5---8--------|
G|-----------5---5------------------|
D|-------------7--------------------|
A|----------------------------------|
E|----------------------------------|

George

E|----------------------------------------|
B|---555---5555---555--7b-7r--------8b----|
G|---555---5555---555--7b-7r--5h7p5-------|
D|-7-----7------7-------------------------|
A|----------------------------------------|
E|----------------------------------------|

John

E|----------------------------------------------|
B|----------------------------------------------|
G|----------------------------------------------|
D|------------0-----0-----0---2p0-0-----0-------|
A|------0--3b---3b-----3----3--------3---0------|
E|-0--3-----------------------------------------|

Paul

E|-------------------------------------------------------|
B|-------------------------------------------------------|
G|----------5-5--5-5-----------5-5--5-5------------------|
D|-5-5--5-5----------5-5--5--5-----------5\2--2p0--------|
A|-------------------------------------------------3p0-0-|
E|-------------------------------------------------------|

George

E|-----------------15b----15r-----------|
B|-------------13--------------13h15p13-|
G|--9/12-12/14--------------------------|
D|--------------------------------------|
A|--------------------------------------|
E|--------------------------------------|

John

E|---------------------------------------|
B|---------------------------------------|
G|------5--7p5----7p5-7p5-7p5-7p5-7p5-7p5| repeat
D|--7---5--7p5----7p5-7p5-7p5-7p5-7p5-7p5|
A|--7------------------------------------|
E|---------------------------------------|

n.C

(Final)
A
And in the end
    G
The love you take
   F            Dm7
Is equal to the love
G7  C
You make
D   D#  F   C
Ah

(**pausa de +ou- 25 segundos**)

EXTRA: HER MAJESTY

D/F#

D    D/C#       D/B         D/A
Her Majesty's a pretty nice girl,
         E7            A      D
But she doesn't have a lot to say

Walkup A string (corda la aberto (0), 2 casa, 4 casa, Corda Ré)

D    D/C#       D/B         D/A
Her Majesty's a pretty nice girl,
         E7                  A  Asus4  A
But she changes from day to day
Bm                      Bsus2 (x24422)
I wanna tell her that I love her a lot,
        D7                     G
But I gotta get a bellyfull of wine
slide to G (x2) D           B7
Her Majesty's a pretty nice girl
     E7            A         D
Someday, I'm gonna make her mine,
      B7         E7            A        D 
Oh, yeah... Someday, I'm gonna make her mine
Composición de John Lennon / Paul Mccartney'
Colaboración y revisión:
  • éder augusto
832 vistas
    • ½ Tono
    • A
    • Bb
    • B
    • C
    • Db
    • D
    • Eb
    • E
    • F
    • F#
    • G
    • Ab
  • Agregar a la lista

    0 comentarios

    Ver todos los comentarios
    00:00 / 00:00
    Outros vídeos desta música
    Repetir Calidad Automático
    Outros vídeos desta música
    00:00 / 00:00
    Automático
    OK