Cifra Club

All My Loving

The Beatles

Cifrado: Principal (guitarra y guitarra eléctrica)
tono: A
           F#m            B
Close your eyes and I'll kiss you
   E           C#m
Tomorrow I'll miss you
   A          F#m         D  B7
Remember I'll always be true
           F#m       B
And then while I'm away
            E         C#m
I'll write home everyday
          A           B         E
And I'll send all my loving to you



         F#m           B
I'll pretend that I'm kissing
     E         C#m
The lips I am missing
     A             F#m  
And hope that my dreams 
            D  B7
Will come true
           F#m       B
And then while I'm away
            E         C#m
I'll write home everyday
          A           B         E
And I'll send all my loving to you



        C#m    C#m7M           E  
All my loving, I will send to you
        C#m     C#m7M             E   
All my loving, darling, I'll be true

[Tab - Entrada Solo]

E|-----------------------------------------------------|
B|-----------------------------------------------------|
G|-----------------------------------------------------|
D|-----------------------------------------------------|
A|-2---------------------------------------------------|
E|---0--2--4-------------------------------------------|

[Tab - Solo]

Parte 1 De 4
E|----5-------------9---x-7---x-5----------------------|
B|----5-----5---x-------x-----x------------------------|
G|----6---------x---9---x-8---x-6----------------------|
D|--------7-----x--------------------------------------|
A|-0---------------------------------------------------|
E|-----------------------------------------------------|

Parte 2 De 4
E|-4--4------------7---x-5---x-4-----------------------|
B|---------5---x-------x-----x-------------------------|
G|-4--4--------x---8---x-6---x-4-----------------------|
D|-------6-----x---------------------------------------|
A|-----------------------------------------------------|
E|-----------------------------------------------------|

Parte 3 De 4
E|-2--2----2-------9---x-5---9-5-----------------------|
B|-------2-----x-------x-------------------------------|
G|-2--2--------x---9---x-6---9-6-----------------------|
D|-------------x---------------------------------------|
A|-----------------------------------------------------|
E|-----------------------------------------------------|

Parte 4 De 4
E|-----------------------------------------------------|
B|-0---0-----0-----0-----------------------------------|
G|-1-----0h1---0h1-------------------------------------|
D|-------------------2---------------------------------|
A|-----------------------------------------------------|
E|-----------------------------------------------------|



           F#m            B
Close your eyes and I'll kiss you
   E           C#m
Tomorrow I'll miss you
   A          F#m         D  B7
Remember I'll always be true
           F#m       B
And then while I'm away
            E         C#m
I'll write home everyday
          A           B         E
And I'll send all my loving to you



        C#m    C#m7M           E
All my loving, I will send to you
        C#m     C#m7M             E
All my loving, darling, I'll be true
        C#m         E
All my loving, all my loving
        C#m                    E
All my loving, I will send to you
00:00 / 00:00
Otros videos de esta canción
Repetir
Otros videos de esta canción
Composición de John Lennon / Paul McCartney
Colaboración y revisión:
  • Jlzarwanski
  • Lucas Kappaun
31.734 vistas
  • Simplificar cifrado
    • ½ Tono
    • A
    • Bb
    • B
    • C
    • Db
    • D
    • Eb
    • E
    • F
    • F#
    • G
    • Ab
  • Agregar a la lista

    0 comentarios

    Ver todos los comentarios
    00:00 / 00:00
    Capítulos
    • Tocando a Música
    • Apresentação / Equipamentos
    • Ensinando Primeiro Ritmo
    • Ensinando Segundo Ritmo
    • Tocando Solo
    • Ensinando Solo - Parte 1 de 4
    • Ensinando Solo - Parte 2 de 4
    • Ensinando Solo - Parte 3 de 4
    • Ensinando Solo - Parte 4 de 4
    • Encerramento
    OK