Cifra Club

All My Loving

The Beatles

Tab de bajo: Principal
Primeira parte (2x)

Close your eyes and I'll kiss you

Parte 1 de 2
G|----------------------------------------------|
D|----------------------------------------------|
A|-9-7-6----------------2------4-4---4----4-7-4-|
E|-------9-7-5-4-2--0-4---4--------4----5-------|

G|----------------------------------------------|
D|----------------------------------------------|
A|-9-9---9--------------------------------------|
E|-----9----10-10-10-10-7-5-4-2-----------------|

Parte 2 de 2
G|----------------------------------------------|
D|----------------------------------------------|
A|-9-7-6----------------2------4-4---4----4-7-4-|
E|-------9-7-5-4-2--0-4---4--------4----5-------|

G|----------------------------------------------|
D|----------------------------------------------|
A|---6-9-6--7-----------------------------------|
E|-7----------9-7-4-0---------------------------|

Refrão: 

All my loving, I will send to you

Parte 1

G|----------------------------------------------|
D|----------------------------------------------|
A|-4-4---4-3-3---3--7-7-----7-7---7--4-4---4----|
E|-----4-------4--------7-7-----7--------4------|

G|----------------------------------------------|
D|----------------------------------------------|
A|-3-3---3--7-----------------------------------|
E|-----4------9-7--2-0--0-2-4-------------------|

Solo de guitarra:

Parte 1

G|----------------------------------------------|
D|--------------------------2-------------------|
A|---4-7-4---4-7-4----4-2-4---4-2---9-7-6-------|
E|-5-------5--------0-------------4-------9-----|

G|----------------------------------------------|
D|------------------2---------------------------|
A|--------------2-4-----------------------------|
E|-7-5-4-2--0-4---------------------------------|

Segunda Parte:

Close your eyes and I'll kiss you

Parte 1 de 2
G|----------------------------------------------|
D|----------------------------------------------|
A|-9-7-6----------------2------4-4---4----4-7-4-|
E|-------9-7-5-4-2--0-4---4--------4----5-------|

G|----------------------------------------------|
D|----------------------------------------------|
A|-9-9---9--------------------------------------|
E|-----9----10-10-10-10-7-5-4-2-----------------|

Parte 2 de 2
G|----------------------------------------------|
D|----------------------------------------------|
A|-9-7-6----------------2------4-4---4----4-7-4-|
E|-------9-7-5-4-2--0-4---4--------4----5-------|

G|----------------------------------------------|
D|----------------------------------------------|
A|---6-9-6--7-----------------------------------|
E|-7----------9-7-4-0---------------------------|

Refrão 2:

All my loving, I will send to you

Parte 1 de 2
G|----------------------------------------------|
D|----------------------------------------------|
A|-4-4---4-3-3---3--7-7-----7-7---7--4-4---4----|
E|-----4-------4--------7-7-----7--------4------|

G|----------------------------------------------|
D|----------------------------------------------|
A|-3-3---3--7-------7---------------------------|
E|-----4------9-7-4---9-7-4---------------------|

Parte 2 de 2
G|----------------------------------------------|
D|----------------------------------------------|
A|-4-4-----4-4---4--7-7-----7-7---7--4-4--------|
E|-----4-4-----4--------7-7-----7--------4-4----|

G|----------------------------------------------|
D|----------------------------------------------|
A|-4-4---4--7-----------------------------------|
E|-----4------9-7-4--0--------------------------|


Composición de John Lennon / Paul McCartney
Colaboración y revisión:
  • Caroline Leroy
2.740 vistas

0 comentarios

Ver todos los comentarios
00:00 / 00:00
Outros vídeos desta música
Repetir Calidad Automático
Outros vídeos desta música
00:00 / 00:00
Automático
Capítulos
  • Tocando a música
  • Dicas Iniciais / Equipamentos
  • Primeira Parte - Parte 1 de 2
  • Primeira Parte - Parte 2 de 2
  • Refrão
  • Solo de Guitarra
  • Refrão 2 - Parte 1 de 2
  • Refrão 2 - Parte 2 de 2
  • Encerramento
  • Ficha Técnica
OK