Cifra Club

All You Need Is Love

The Beatles

Tablatura: Principal
reproducciones 42.910
Tono: G
E|-----------------10-7---7-----8-----------------------|
B|------8-8--10-10------8---8-----10-7-8----------------|
G|--7-9-----------------------9-------------------------|
D|------------------------------------------------------|
A|------------------------------------------------------|
E|------------------------------------------------------|

G      D/F#     Em
Love   love     love
G      D/F#     Em
Love   love     love
Am     Am/G     D/F#  Em  D  C  G/B  D
Love   love     love
E|------------------------------------------------------|
B|------------------------------------------------------|
G|---------------------------------0--------------------|
D|--0-------------------0----0--2-----------------------|
A|-------3-----2---3------------------------------------|
E|------------------------------------------------------|

G                       D/F#             Em
There's nothing you can do that can't be done
G                      D/F#               Em
Theres nothing you can sing that can't be sung
Am              Am/G             D/F#              Em
Nothing you can say but you can learn to play the game
     D    C   G/B  D
It's easy

G                       D/F#               Em
There's nothing you can make that can't be made
G               D/F#               Em
No one  you can save that can't be saved
Am              Am/G            D/F#                  Em
Nothing you can do but you can learn how to be you in time
      D    C  G/B   D
It's easy

Refrão:
G       A        D    D7 ( 57 55 67 65 63 )
All you need is love
G       A        D    D7
All you need is love
G       B7      Em         Em/D
All you need is love       love
C       D       G
Love is all you need

G D/F# Em
G D/F# Em
Am Am/G C/F# Em D C G/B D


SOLO:



E|-------------------------------------------------------------------------|
B|---10/12--10~\8--8/10p8------10/12-12--10p8-10--8/10p8---13-12--13-12-10~|
G|-7----------------------9~\7---------------------------9~----------------|
D|-------------------------------------------------------------------------|
A|-------------------------------------------------------------------------|
E|-------------------------------------------------------------------------|

G                       D/F#                Em
There's nothing you can know that isn't known
G               D/F#            Em
Nothing you can see that isn't shown
Am              Am/G            C/F#                Em
Nowhere you can be that isn't where you're meant to be
     D   C  G/B  D
Its easy

(Refrão)

C       D       G
Love is all you need
G       A       D     D7
All you need is love
G       A        D    D7
All you need is love
G       B7      Em      Em/D
All you need is love    love
C      D       G
Love is all you need   (repete algumas vezes)
Acordes para:

    0 comentarios

      mostrar más comentarios

      ¿Conseguiste tocar?

      56tocaron0aún no

      ¡Graba un vídeo tocando All You Need Is Love y envianoslo!

      00:00 / 00:00
      outros vídeos desta música
      repetirqualidadeautomática
      Outro vídeos desta música
        00:00 / 00:00
        automática
        OK